John Frusciante - Song To Sing When Im Lonely Chords & Tabs

 

Song To Sing When Im Lonely Chords & Tabs

John Frusciante Chords & Tabs

Version: 1 Type: Tab 0 ratings
1 star 2 stars 3 stars 4 stars 5 stars
comments

Song To Sing When Im Lonely Tab

   
intro: B D#m C# G#m

verse: B D#m C# G#m *2 hold on last

chorus: F# C# G#m*3 mute
	G#m F# C# *2
	B pm F# G#m*2
	F# G#m F# G#m *2

verse: B D#m C# G#m *2 hold on last

chorus: F# C# G#m*2 mute
	G#m F# C# *2
	B pm F# G#m*2
	F# G#m F# G#m *2   C#

tag: G#m F# C#*?

	G#m

verse vox:

----------------------------------------------------|
-----1-1h3-1------------/6-6-1h3-1---------1-3-1----|
-1/4---------4-4-1-----------------4-1--4-----------|
----------------------------------------------------|
----------------------------------------------------|
----------------------------------------------------|

chorus vox:

-------------------------------------------------------------|
---------------------------2---------------------------------|
-----------------------4-4---3-1-------------------3---------|
-----4------------4\1------------4-1---4---------4---4\1-----|
-4/6---6-4---4/6--------------------------4--4/6-------------|
-------------------------------------------------------------|
[ Tab from: http://www.guitartabs.cc/tabs/j/john_frusciante/song_to_sing_when_im_lonely_tab.html ]
---------------------------------------------------------------------------|
---------------------------------------------------------------------------|
-4-4-3-1------3\1-------3--------1/3-4-4-3-1---------1-1-3-4-4-3-1---1/3\1-|
---------4--4---------4---4\1----------------4---------------------4-------|
------------------4/6--------------------------6p4-------------------------|
---------------------------------------------------------------------------|

----------------------------------------------------------|
----------------------------------------------------------|
----------------------1h3p1-------------------------1h3p1-|
--4-4-1-4-4-1-4-4-1-4----------4-4-1-4-4-1-4-4-1-4--------|
----------------------------------------------------------|
----------------------------------------------------------|

-------------------------------------------------|
-2/4----------------------2/4--------------------|
-----3-1--------1/3\1---------3-1---4-4-3\1------|
---------4-1--4-----------------------------4\1--|
-------------------------------------------------|
-------------------------------------------------|

verse harmony:


-------------------------------------------|
-------------------------------------------|
-------------------------------------------|
-------------------------------------------|
-6---9--8--6-------------------------------|
-7---11-9--7-------------------------------|

andeh, www.the-rails.co.uk
Comments