John Frusciante - Smile From The Streets You Hold Chords & Tabs

 

Smile From The Streets You Hold Chords & Tabs

John Frusciante Chords & Tabs

Version: 1 Type: Tab 0 ratings
1 star 2 stars 3 stars 4 stars 5 stars
comments

Smile From The Streets You Hold Tab

Author/Artist: John Frusciante
Title: Smile From The Streets You Hold
Album: Smile From The Streets You Hold
Transcribed by: Thatyou (my first tab, i hope its good :)

Its been So Long, Since I felt The Heat of the sun on My palm

--|--x-------8--------6-------------------------------------------------------|
--|--10------8--------6-------------------------------------------------------|
--|--10------9--------7-------------------------------------------------------|
--|--10------10-------8-------------------------------------------------------|
--|--8-------10-------8-------------------------------------------------------|
--|--x------------------------------------------------------------------------|

You're the one
who knows me best
--|--5------------6-------8------x--------------------------------------------|
--|--5------------6-------8------10-------------------------------------------|
--|--6------------7-------9------10-------------------------------------------|
--|--7------------8-------10-----10-------------------------------------------|
--|--7------------8-------10-----8--------------------------------------------|
--|------------------------------x--------------------------------------------|
For the chorus use the "its been so long" chords

You're always on the decline,    A toast to us
you take another sip of wine     you're the one with the stars
--|-5------x------x------x-----|--11------x-----|-----------------------------|
--|-5------3------5------10----|--11------15----|-----------------------------|
--|-6------3------5------10----|--12------15----|-----------------------------|
--|-7------3------5------10----|--13------15----|-----------------------------|
--|-7------1------3------8-----|--13------13----|-----------------------------|
--|----------------------------|----------------|-----------------------------|

Instrumental Break   You Held the sign, for      That youuuuu...
                        the one that you    (this is the basic rhythm for the
solo)
--|-x---6---4---3---|--9-----8-----9-----8-----|---------|----------|---------|
--|-8---6---4---3---|--9-----8-----9-----9-----|------6--|-------6--|---------|
--|-8---7---5---3---|--10----8-----10----10----|---------|----------|---------|
--|-8---8---6---5---|--11----10----11----10----|---------|----------|---------|
--|-6---8---6---5---|--11----10----11----------|-4-------|-8--------|---------|
--|-----------------|--------------------------|---------|----------|---------|
[ Tab from: http://www.guitartabs.cc/tabs/j/john_frusciante/smile_from_the_streets_you_hold_tab.html ]
                                                   oowoooah    your'e the
--|---------------------------------------------------------------------------|
--|-------7---------7----------10--------10----------7-----7------7-------7---|
--|---------------------------------------------------------------------------|
--|----9--------9----------12-------12----------9-------9------9-------9------|
--|-7-------7---------10--------10-----------7-------7------7-------7---------|
--|---------------------------------------------------------------------------|

      one in the            sky where did you
--|---------------------------------------------------------------------------|
--|--------10-------10--------------------------------------------------------|
--|------------------------------11-------------11----------------------------|
--|----12--------12-----------------12-------------12-------------------------|
--|-10-------10--------------12------------12---------------------------------|
--|----------------------10------------10-------------------------------------|

        go                                              you know you're
--|---------------------------------------------------------------------------|
--|------8----------8-------------8-----------8------------5----------5-------|
--|--------9-----------9------------9-----------9------------5----------5-----|
--|---9----------9-------------9-----------9-------------------5---------5----|
--|-7----------7------------7-----------7----------------3----------3---------|
--|---------------------------------------------------------------------------|

    where the      planets grow you're in the sun the face of pluto ooha
--|--------------------------------------|--x-----10-------8--------x-----x---|
--|---7--------7---------5---------5-----|--12----10-------8--------7-----5---|
--|----7--------7----------5---------5---|--12----11-------9--------7-----5---|
--|-----7--------7-----------5--------5--|--12----12-------10-------7-----5---|
--|-5--------5---------3---------3-------|--10----12-------10-------5-----3---|
--|--------------------------------------|------------------------------------|

   ooooahoooo
--|-3--------1----------------------------------------------------------------|
--|-3--------1----------------------------------------------------------------|
--|-4--------2----------------------------------------------------------------|
--|-5--------3----------------------------------------------------------------|
--|-5--------3----------------------------------------------------------------|
--|---------------------------------------------------------------------------|
Comments