John Frusciante - Slow Down Chords & Tabs

 

Slow Down Chords & Tabs

John Frusciante Chords & Tabs

Version: 1 Type: Tab 0 ratings
1 star 2 stars 3 stars 4 stars 5 stars
comments

Slow Down Tab

Song: Slow Down 
Artist: John Frusciante
Album: From The Sounds Inside

This is my first tab, so go easy on me, I haven't figured out the acoustic bits
and I don't think I'll bother either.

e|----------------------------------------------|   X4
B|----------------------------------------------|	
G|---5-5-5---7-7-7---5-5-5---9-9-9-9-9-9-9-9----|
D|---5-5-5---7-7-7---5-5-5---7-7-7-7-7-7-7-7----|
A|---3-3-3---5-5-5---3-3-3---7-7-7-7-7-7-7-7----|
E|----------------------------------------------|

Then: 

e|-----|   (Let ring)  
B|-----|
G|--5--| 
D|--5--|
A|--3--|
E|-----|

Solo (type thing):

B|---16br-13~----15br-13-12-13~-----20---17~----21br-18-17-17-|

e|----------------------------------------------|   X7
B|----------------------------------------------|	
G|---5-5-5---7-7-7---5-5-5---9-9-9-9-9-9-9-9----|
D|---5-5-5---7-7-7---5-5-5---7-7-7-7-7-7-7-7----|
A|---3-3-3---5-5-5---3-3-3---7-7-7-7-7-7-7-7----|
E|----------------------------------------------|

Then:

e|------------------------|   (Let last chord ring)
B|------------------------|	
G|---5-5-5---7-7-7--5--9--|
D|---5-5-5---7-7-7--5--7--|
A|---3-3-3---5-5-7--3--7--|
E|------------------------|

B|---15~---|

[Some Acoustic thing and other quiet soloing I can't figure out.]
[ Tab from: http://www.guitartabs.cc/tabs/j/john_frusciante/slow_down_tab.html ]
e|----------------------------------------------|   X7
B|----------------------------------------------|	
G|---5-5-5---7-7-7---5-5-5---9-9-9-9-9-9-9-9----|
D|---5-5-5---7-7-7---5-5-5---7-7-7-7-7-7-7-7----|
A|---3-3-3---5-5-5---3-3-3---7-7-7-7-7-7-7-7----|
E|----------------------------------------------|

Then:

e|------------------------|   (Let last chord ring)
B|------------------------|	
G|---5-5-5---7-7-7--5--9--|
D|---5-5-5---7-7-7--5--7--|
A|---3-3-3---5-5-7--3--7--|
E|------------------------|


B|---20-20-17-17---20-20-17-17---21br-20-17-18-17---15-21-21-15\13---|

e|----------------------------------------------|   X7
B|----------------------------------------------|	
G|---5-5-5---7-7-7---5-5-5---9-9-9-9-9-9-9-9----|
D|---5-5-5---7-7-7---5-5-5---7-7-7-7-7-7-7-7----|
A|---3-3-3---5-5-5---3-3-3---7-7-7-7-7-7-7-7----|
E|----------------------------------------------|

e|--------------------------|
B|--------------------------|	
G|---5-5-5---7-7-7---5-5-5--|
D|---5-5-5---7-7-7---5-5-5--|
A|---3-3-3---5-5-5---3-3-3--|
E|--------------------------|

e|------------------------------------------|   (Didn't count how many times.
B|------------------------------------------|    Work it out. Let last chord ring.)	
G|---9-9-9-9-9-9-9-9-9-9-9-9-9-9-9-9-9-9-9--|
D|---7-7-7-7-7-7-7-7-7-7-7-7-7-7-7-7-7-7-7--|
A|---7-7-7-7-7-7-7-7-7-7-7-7-7-7-7-7-7-7-7--|
E|------------------------------------------|
Comments