John Frusciante - Penetrate Time Chords & Tabs

 

Penetrate Time Chords & Tabs

John Frusciante Chords & Tabs

Version: 1 Type: Tab 0 ratings
1 star 2 stars 3 stars 4 stars 5 stars
comments

Penetrate Time Tab

John Frusciante - Penetrate Time (Lou Bergs)

Verse 1
e----5-----------------------5---------------------
B--------------5----5h7----------------5-------5h7-
G---------6-----------------------6----------------
D--4----4------------------4----4------------------
A------------4----4------------------4----4/5------
E--------------------------------------------------

Chorus
e--0----2----4----2------
B--2----3----5----3------ listen for
G--2----4----6----2------ strumming
D--2----4----6----0------ pattern
A--0----2----4-----------
E------------------------

Repeat Verse 1

Repeat Chorus

Interlude

Part 1
e--2--2--2--2--0---
B--2--2--2--2--2---
G--2--2--2--2--2---
D--4--4--4--4--2---
A--4--4--4--4--0---
E--2--2--2--2------ 

Part 1 again

Part 2
e--4--4--4--4--0---
B--5--5--5--5--2---
G--6--6--6--6--2---
D--6--6--6--6--2---
A--4--4--4--4--0---
E------------------

Part 1

Part 2

Part 1

Part 2

e---2----4----2------
B---3----5----3------
G---4----6----2------
D---4----6----0------
A---2----4-----------
E--------------------
[ Tab from: http://www.guitartabs.cc/tabs/j/john_frusciante/penetrate_time_tab.html ]
Solo type thing...
e----5-----------------------------------9------5/7---
B--------------5------5h7-----------------------------
G---------6--------------------6----------------------
D--4----4---------------------------7-----------------
A------------4----4/5------------------7----7\5-------
E----------------------------5----5-------------------

e----5-----------------------------------0--2---
B--------------5------5h7----------------0--3---
G---------6--------------------6------6--1--2--- listen for
D--4----4-----------------------------7--2--0--- strumming
A------------4----4/5-----------------7--2------ pattern
E----------------------------5----5---5--0------

Verse 2
e----5---------------------------------------------
B--------------5------5h7----------------9------7--
G---------6--------------------6-------------------
D--4----4---------------------------7--------------
A------------4----4/5------------------7----7\5----
E----------------------------5----5----------------

e----5-----------------------------------9------5/7---
B--------------5------5h7-----------------------------
G---------6--------------------6----------------------
D--4----4---------------------------7-----------------
A------------4----4/5------------------7----7\5-------
E----------------------------5----5-------------------

e----5----------------------
B--------------5------5h7---
G---------6-----------------
D--4----4-------------------
A------------4----4/5-------
E---------------------------

Outro
e--0----2----4----2----------0--
B--2----3----5----3----------2-- listen for
G--2----4----6----2--end-on--2-- strumming
D--2----4----6----0----------2-- pattern
A--0----2----4---------------0--
E-------------------------------
Comments