John Frusciante - Murmur Chords & Tabs

 

Murmur Chords & Tabs

John Frusciante Chords & Tabs

Version: 1 Type: Tab 0 ratings
1 star 2 stars 3 stars 4 stars 5 stars
comments

Murmur Tab

=================================
 John Frusciante - "Murmur" 1:59
=================================
 Transcribed by Luka Zitnik
 lukazit@hotmail.com


-------
-------
---2---
-------
-------

-----------------------------------
-----------------------------------
-----2-------5-------9-------7h99--
-0-0---0-3-3---3-7-----7---7-------
-----------------------------------
-----------------------------------

-----------------------------------
-----------------------------------
-----2-------5-------9-------------
-0-0---0-3-3---3-7-7---7---7-7h107-
-----------------------------------
-----------------------------------

-----------------------------------
-----------------------------------
-----2-------5-------9-------------
-0-0---0-3-3---3-7-7---7---7-7h107-
-----------------------------------
-----------------------------------

-----------------------------------
-----------------------------------
-----7------------------------9----
-5-5---5---5----8-8-8h108-7-----7--
-----------------------------------
-----------------------------------

-------------------------------------------------

-----------------------------------
-------------------------------13--
-----2-------5-------9-------------
-0-0---0-3-3---3-7-7---7-----------
-----------------------------------
-----------------------------------

-----------------------------------
-----------------------------8h1010
-----2-------5-------9-------------
-0-0---0-3-3---3-7-7---7---7-------
-----------------------------------
-----------------------------------

-----------------------------------
-----------------------------------
-----2-------5--------9------------
-0-0---0-3-3---3-7---7--7---7---7--
-----------------------------------
-----------------------------------

-----------------------------------
-----------------------------------
-----7--------------10-------9-----
-5-----5---5----8-8----8-7-7---7---
-----------------------------------
-----------------------------------

-------------------------------------------------

-----------------------------------
-----------------------------------
-----2-------5-------9-------7h99--
-0-0---0-3-3---3-7-7---7---7-------
-----------------------------------
-----------------------------------

-----------------------------------
-----------------------------------
-----2-------5-------9-9/12--10--9-
-0-0---0-3-3---3-7-7---------------
-----------------------------------
-----------------------------------

--------------------------------------
--------------------------------------
-----2-------5-------7h9-7h9-7h9-7h9--
-0-0---0-3-3---3-7--7---7---7---7---7-
--------------------------------------
--------------------------------------
[ Tab from: http://www.guitartabs.cc/tabs/j/john_frusciante/murmur_tab.html ]
--------------------------------------
--------------------------------------
-----7-------5h7------10h1210----9h109
-5-----5--5-----5-8-8---------7-7-----
--------------------------------------
--------------------------------------

-------------------------------------------------

-----------------------------------
-----------------------------------
-----2-------5-------9-------7h97--
-0-0---0-3-3---3-7-7---7---7-------
-----------------------------------
-----------------------------------

-----------------------------------
-----------------------------------
-----2-------5---------9---9---9---
-0-0---0-3-3---3-7---7-7---7---7---
-----------------------------------
-----------------------------------

-------------------------------------------------
Ending part:

-----------------------------------
-----------------------------------
-----2-------5-------9-----9-------
-0-0---0-3-3---3-7-7---7-----7h107-
-----------------------------------
-----------------------------------

-----------------------------------
-----------------------------------
-----2-------5-------9-------7h97--
-0-0---0-3-3---3-7-7---7-----------
-----------------------------------
-----------------------------------

-----------------------------------
-----------------------------------
-----2-------5-------9-----9-9h109-
-0-0---0-3-3---3-7-7---7-----------
-----------------------------------
-----------------------------------

-----------------------------------
-----------------------------------
-----7-------7-------10-------9----
-5-5---5--5------8-8----8-7-7---7--
-----------------------------------
-----------------------------------

-------------------------------------------------

-----------------------------------
-----------------------------------
-----2-------5-------9-------999---
-0-0---0-3-3---3-7-7---7---7-------
-----------------------------------
-----------------------------------

-----------------------------------
-----------------------------------
-----2-------5-------9-------------
-0-0---0-3-3---3-7-7---7-----------
-----------------------------------
-----------------------------------

------------------------------------
------------------------------------
-----2-------5-----9--9---9---9---9-
-0-0---0-3-3---3-7--7--7---7---7----
------------------------------------
------------------------------------

-----------------------------------
-----------------------------------
-----7-------------10--------------
-5-5---5------8-8-----8-7----------
-----------------------------------
-----------------------------------

=======================================================================
If you have found anything that you consider incorrect, please mail me.
=======================================================================
Comments