John Frusciante - Murderers Chords & Tabs

 

Murderers Chords & Tabs

John Frusciante Chords & Tabs

Version: 1 Type: Tab 0 ratings
1 star 2 stars 3 stars 4 stars 5 stars
comments

Murderers Tab

John Frusciante - Murderers.
Tabbed by Leo Drobnic gdrobnic@inet.hr.
  
John Frusciante
Murderers
Tabbed by Leo Drobnic (e-mail: gdrobnic@inet.hr)

INTRO:
play 2 times
e:---------------------9---12--9--------------
B:----12----9--10--10-------------12--9---10--
G:--------------------------------------------
D:--------------------------------------------
A:--------------------------------------------
E:--------------------------------------------

e:-------------------------------------------|
B:--12----9--10--10--12--14--12--------------|
G:-------------------------------14--13--14--|
D:-------------------------------------------|
A:-------------------------------------------|
E:-------------------------------------------|



e:-----------------------------|
B:----9------10-----9------9---|
G:-----------------------------|
D:-----------------------------|
A:----7------9------7------6---|
E:-----------------------------|


[ Tab from: http://www.guitartabs.cc/tabs/j/john_frusciante/murderers_tab.html ]
e:-------------------------------------------------
B:-------7-----7-7----7--9--10--10-----10-10-------
G:-------------------------------------------------
D:-------------------------------------------------
A:----5-----5-------5-5--7--9-------9---------9----
E:-------------------------------------------------

e:----------------------------------------------------
B:------7-7-----9-9-----9--12--10--10-----10-10----10-
G:----------------------------------------------------
D:----------------------------------------------------
A:----5------7-------7--7--11---9------9---------9--9-
E:----------------------------------------------------

e:------------------------------------------------------------
B:--------17-17------17-17------17--9--10--10-----10-10----10-
G:------------------------------------------------------------
D:------------------------------------------------------------
A:----15---------15---------15------7---9------9---------9--9-
E:------------------------------------------------------------

e:------------------------------|
B:------7-7-----9-9-----9--5----|
G:------------------------------|
D:------------------------------|
A:----5------7-------7--7--3----|
E:------------------------------|

The rythm is weird so it'll take awhile to get it right.
I don't know if everything is correct, but since this is my
first tab don't hold anything against me.  Please conntact me
about corrections.
 
:: Ultimate Guitar Archive :: 
http://www.ultimate-guitar.com 

Comments