John Frusciante - Maybe Live Chords & Tabs

 

Maybe Live Chords & Tabs

John Frusciante Chords & Tabs

Version: 1 Type: Tab 0 ratings
1 star 2 stars 3 stars 4 stars 5 stars
comments

Maybe Live Tab

   
-------------------------------------------------------------------------------
			     Maybe (Live) - John Frusciante
-------------------------------------------------------------------------------
Tabbed by: Sir Psycho
Email: bennybeast1@hotmail.com

This is 'Maybe' performed live by John Frusciante at several Red Hot Chili Peppers gigs,
including Live at Slane Castle and Hyde Park (For those of you who were lucky enough to
go!!)

Tuning:EADGBe

Nothing complicated about this tab as all he uses are simple barre chords.
I will put the chords but not the rhythm so LISTEN to the the live version for rhythm
(If you can't be bothered to do that then the chords are generally strummed 3 or 4
times each). I can guarantee that this is 100% correct.

First Verses:

     A#    Gmin   D#     E#
e|---6------3------6------8-----------------------------------------------|
B|---6------3------8------10----------------------------------------------|
G|---7------3------8------10----------------------------------------------|
D|---8------5------8------10----------------------------------------------|
A|---8------5------6------8-----------------------------------------------|
E|---6------3-------------------------------------------------------------|


Where John sings 'Oooh Maybe' these chords are played:
[ Tab from: http://www.guitartabs.cc/tabs/j/john_frusciante/maybe_live_tab.html ]
           D#     E#
e|----------6------8---------------------------------------------------------|
B|----------8------10--------------------------------------------------------|
G|----------8------10--------------------------------------------------------|
D|----------8------10--------------------------------------------------------|
A|----------6------8---------------------------------------------------------|
E|---------------------------------------------------------------------------|

Then this little 'riff':

e|---------------------------------------------------------------------------|
B|---------------------------------------------------------------------------|
G|---------------------------------------------------------------------------|
D|---------------------------------------------------------------------------|
A|---------------------------------------------------------------------------|
E|-1--1--1--3--5-------------------------------------------------------------|


Then straight back into the main chord progression:

   A#    Gmin   D#     E#
e|---6------3------6------8--------------------------------------------------|
B|---6------3------8------10-------------------------------------------------|
G|---7------3------8------10-------------------------------------------------|
D|---8------5------8------10-------------------------------------------------|
A|---8------5------6------8--------------------------------------------------|
E|---6------3----------------------------------------------------------------|

And it ends on this:
 
         D#     E#
e|----------6------8---------------------------------------------------------|
B|----------8------10--------------------------------------------------------|
G|----------8------10--------------------------------------------------------|
D|----------8------10--------------------------------------------------------|
A|----------6------8---------------------------------------------------------|
E|---------------------------------------------------------------------------|

===============================================================================
Tabbed by Ben aka Sir Psycho Comments & Questions to: bennybeast1@hotmail.com
===============================================================================
Comments