John Frusciante - Look On Chords & Tabs

 

Look On Chords & Tabs

John Frusciante Chords & Tabs

Version: 1 Type: Tab 0 ratings
1 star 2 stars 3 stars 4 stars 5 stars
comments

Look On Tab

   
----------------------------------------------------------------------------
			     Look on - John Frusciante
----------------------------------------------------------------------------
Tabbed by: Pincho.
Email: jjrt2112@hotmail.com

Tuning: Standar.

This song has 3 parts, i donīt have the lyrics right now, but its very easy to find out
when to play each part.

A:

e|----------------4--44/7-7777------|-------------------4---4444/7777------|
B|----------------2--22/5-5555------|-------------------2---2222/5555------|
G|-4/6-666--9--6--------------------|-4/6-666--9/11--6---------------------|
D|-4/6-666--9--6--4--44/7-7777------|-4/6-666--9/11--6--4---4444/7777------|
A|-2/4-444--7--4--------------------|-2/4-444--7/9---4---------------------|
E|----------------2--22/5-5555------|-------------------2---2222/5555------|
                  T  TT T TTTT                          T   TTTT TTTT


Then:

B:

[ Tab from: http://www.guitartabs.cc/tabs/j/john_frusciante/look_on_tab.html ]
   E					G#
   
e|-0---0000---0000---0000---0---------|-4---4444---4444---4444---4---------|
B|-0---0000---0000---0000---0---------|-4---4444---4444---4444---4---------|
G|-1---1111---1111---1111---1---------|-5---5555---5555---5555---5---------|
D|-2---2222---2222---2222---2---------|-6---6666---6666---6666---6---------|
A|-2---2222---2222---2222---2---------|-6---6666---6666---6666---6---------|
E|-0---0000---0000---0000---0---------|-4---4444---4444---4444---4---------|



Then:

C:

    A                 C#m   E               B
e|--5--5-5-5--5-5-----4-4--------------------------------------------------|
B|--5--5-5-5--5-5---x-5-5---9-9-9-9--9-9--x-7-7----------------------------|
G|--6--6-6-6--6-6---x-6-6---9-9-9-9--9-9--x-8-8----------------------------|
D|--7--7-7-7--7-7---x-6-6---9-9-9-9--9-9--x-9-9----------------------------|
A|--7--7-7-7--7-7---x-4-4---7-7-7-7--7-7--x-9-9----------------------------|
E|--5--5-5-5--5-5---------------------------7-7----------------------------|


Repeat A,B,C 

For the solo just impro in B major.

*T = Fret with Thumb.
Comments