John Frusciante - Look On Chords & Tabs

 

Look On Chords & Tabs

John Frusciante Chords & Tabs

Version: 1 Type: Bass Tab 0 ratings
1 star 2 stars 3 stars 4 stars 5 stars
comments

Look On Bass Tab

   
                                     W                   Q    Q    Q    Q     
G||-------|-------|-------|-------|-------------------|----------------------|
D||-------|-------|-------|-------|-------------------|----------------------|
A||-------|-------|-------|-------|-------------------|----------------------|
E||-------|-------|-------|-------|--2----------------|--x----5----5---------|


  E   E  E  E  E  E  E   E     Q    H.               W                 
----------------------------|---------------------|-------------------|
----------------------------|---------------------|-------------------|
---------------------7s--9--|--L----4\------------|-------------------|
--7h--9--9--9---------------|---------------------|--2----------------|


  Q    Q    Q    Q       E   E  E  E  E  E  Q        Q    H.             
----------------------|---------------------------|---------------------|
----------------------|---------------------------|---------------------|
----------------------|---------------------7s----|--4----4\------------|
--x----5----5---------|--7h--9--9--9--------------|---------------------|


  W                   Q    Q    Q    Q       E   E  E  E  E  E  E   E   
-------------------|----------------------|----------------------------|
-------------------|----------------------|----------------------------|
-------------------|----------------------|---------------------7s--9--|
--2----------------|--x----5----5---------|--7h--9--9--9---------------|


  Q    H.               W                   Q    Q    Q    Q     
---------------------|-------------------|----------------------|
---------------------|-------------------|----------------------|
--L----4\------------|-------------------|----------------------|
---------------------|--2----------------|--x----5----5---------|


  E   E  E  E  E  E  Q        Q    H.               W                 
---------------------------|---------------------|-------------------|
---------------------------|---------------------|-------------------|
---------------------7s----|--4----4\------------|-------------------|
--7h--9--9--9--------------|---------------------|--2----------------|


  Q    Q    Q    Q       E   E  E  E  E  E  E   E     Q    H.             
----------------------|----------------------------|---------------------|
----------------------|----------------------------|---------------------|
----------------------|---------------------7s--9--|--L----4\------------|
--x----5----5---------|--7h--9--9--9---------------|---------------------|


  W                   Q    Q    Q    Q       E  Q    Q    E  Q     
-------------------|----------------------|-----------------------|
-------------------|----------------------|-----------------------|
-------------------|----------------------|-----------------------|
--2----------------|--x----5----5---------|--0--0----0----0--0----|


  E  E  Q    E  E  E  E     E  Q    Q    E  Q       E  E  Q    E  E  E  E   
-------------------------|-----------------------|-------------------------|
-------------------------|-----------------------|-------------------------|
-------------------7-----|-----------------------|-------------------7-----|
--0--0--0----3--0-----0--|--0--0----0----0--0----|--0--0--0----3--0-----0--|


  E  Q    Q    E  Q       E  E  Q    E  E  E  E     E  Q    Q    E  Q     
-----------------------|-------------------------|-----------------------|
-----------------------|-------------------------|-----------------------|
-----------------------|-------------------6-----|-----------------------|
--4--4----4----4--4----|--4--4--4----6--4-----4--|--4--4----4----4--4----|


  E  E  Q    E  E  E  E     Q    Q    E  Q    E     Q    E  E  E  Q.      
-------------------------|-----------------------|-----------------------|
-------------------------|-----------------------|-----------------------|
-------------------6-----|-----------------------|-------4-----4---------|
--4--4--4----6--4-----4--|--5----5----5--5----5--|-----------------------|


  Q    E  Q    Q    E     Q    E  E  E  Q.        Q    Q    E  Q    E   
-----------------------|-----------------------|-----------------------|
-----------------------|-----------------------|-----------------------|
--7----7--7----7----7--|-----------------------|-----------------------|
-----------------------|-------7-----7---------|--5----5----5--5----5--|


  Q    E  E  E  Q.        Q    E  Q    Q    E     Q    E  E  E  Q.      
-----------------------|-----------------------|-----------------------|
-----------------------|-----------------------|-----------------------|
-------4-----4---------|--7----7--7----7----7--|-----------------------|
-----------------------|-----------------------|-------7-----7---------|


  Q    Q    E  Q    E     Q    E  E  E  Q.        Q    E  Q    Q    E   
-----------------------|-----------------------|-----------------------|
-----------------------|-----------------------|-----------------------|
-----------------------|-------4-----4---------|--7----7--7----7----7--|
--5----5----5--5----5--|-----------------------|-----------------------|


  Q    E  E  E  Q.        Q    Q    E  Q    E     Q    E  E  E  Q.      
-----------------------|-----------------------|-----------------------|
-----------------------|-----------------------|-----------------------|
-----------------------|-----------------------|-------4-----4---------|
-------7-----7---------|--5----5----5--5----5--|-----------------------|


  Q    E  Q    Q    E     Q    E  E  E  Q.        Q    Q    E  Q    E   
-----------------------|-----------------------|-----------------------|
-----------------------|-----------------------|-----------------------|
--7----7--7----7----7--|-----------------------|-----------------------|
-----------------------|-------7-----7---------|--5----5----5--5----5--|


  Q    E  E  E  Q.        Q    E  Q    Q    E     Q    E  E  E  Q.              
-----------------------|-----------------------|-----------------------|-------|
-----------------------|-----------------------|-----------------------|-------|
-------4-----4---------|--7----7--7----7----7--|-----------------------|-------|
-----------------------|-----------------------|-------7-----7---------|-------|


          W                   Q    Q    Q    Q       E   E  E  E  E  E  E   E   
-------|-------------------|----------------------|----------------------------|
-------|-------------------|----------------------|----------------------------|
-------|-------------------|----------------------|---------------------7s--9--|
-------|--2----------------|--x----5----5---------|--7h--9--9--9---------------|


  Q    H.               W                   Q    Q    Q    Q     
---------------------|-------------------|----------------------|
---------------------|-------------------|----------------------|
--L----4\------------|-------------------|----------------------|
---------------------|--2----------------|--x----5----5---------|


  E   E  E  E  E  E  Q        Q    H.               W                 
---------------------------|---------------------|-------------------|
---------------------------|---------------------|-------------------|
---------------------7s----|--4----4\------------|-------------------|
--7h--9--9--9--------------|---------------------|--2----------------|


  Q    Q    Q    Q       E   E  E  E  E  E  E   E     Q    H.             
----------------------|----------------------------|---------------------|
----------------------|----------------------------|---------------------|
----------------------|---------------------7s--9--|--L----4\------------|
--x----5----5---------|--7h--9--9--9---------------|---------------------|


  W                   Q    Q    Q    Q       E   E  E  E  E  E  Q      
-------------------|----------------------|---------------------------|
-------------------|----------------------|---------------------------|
-------------------|----------------------|---------------------7s----|
--2----------------|--x----5----5---------|--7h--9--9--9--------------|


  Q    H.               W                   Q    Q    Q    Q     
---------------------|-------------------|----------------------|
---------------------|-------------------|----------------------|
--4----4\------------|-------------------|----------------------|
---------------------|--2----------------|--x----5----5---------|


  E   E  E  E  E  E  E   E     Q    H.               W                 
----------------------------|---------------------|-------------------|
----------------------------|---------------------|-------------------|
---------------------7s--9--|--L----4\------------|-------------------|
--7h--9--9--9---------------|---------------------|--2----------------|


  Q    Q    Q    Q       E  Q    Q    E  Q       E  E  Q    E  E  E  E   
----------------------|-----------------------|-------------------------|
----------------------|-----------------------|-------------------------|
----------------------|-----------------------|-------------------7-----|
--x----5----5---------|--0--0----0----0--0----|--0--0--0----3--0-----0--|


  E  Q    Q    E  Q       E  E  Q    E  E  E  E     E  Q    Q    E  Q     
-----------------------|-------------------------|-----------------------|
-----------------------|-------------------------|-----------------------|
-----------------------|-------------------7-----|-----------------------|
--0--0----0----0--0----|--0--0--0----3--0-----0--|--4--4----4----4--4----|


  E  E  Q    E  E  E  E     E  Q    Q    E  Q       E  E  Q    E  E  E  E   
-------------------------|-----------------------|-------------------------|
-------------------------|-----------------------|-------------------------|
-------------------6-----|-----------------------|-------------------6-----|
--4--4--4----6--4-----4--|--4--4----4----4--4----|--4--4--4----6--4-----4--|


  Q    Q    E  Q    E     Q    E  E  E  Q.        Q    E  Q    Q    E   
-----------------------|-----------------------|-----------------------|
-----------------------|-----------------------|-----------------------|
-----------------------|-------4-----4---------|--7----7--7----7----7--|
--5----5----5--5----5--|-----------------------|-----------------------|


  Q    E  E  E  Q.        Q    Q    E  Q    E     Q    E  E  E  Q.      
-----------------------|-----------------------|-----------------------|
-----------------------|-----------------------|-----------------------|
-----------------------|-----------------------|-------4-----4---------|
-------7-----7---------|--5----5----5--5----5--|-----------------------|


  Q    E  Q    Q    E     Q    E  E  E  Q.        Q    Q    E  Q    E   
-----------------------|-----------------------|-----------------------|
-----------------------|-----------------------|-----------------------|
--7----7--7----7----7--|-----------------------|-----------------------|
-----------------------|-------7-----7---------|--5----5----5--5----5--|


  Q    E  E  E  Q.        Q    E  Q    Q    E     Q    E  E  E  Q.      
-----------------------|-----------------------|-----------------------|
-----------------------|-----------------------|-----------------------|
-------4-----4---------|--7----7--7----7----7--|-----------------------|
-----------------------|-----------------------|-------7-----7---------|


  Q    Q    E  Q    E     Q    E  E  E  Q.        Q    E  Q    Q    E   
-----------------------|-----------------------|-----------------------|
-----------------------|-----------------------|-----------------------|
-----------------------|-------4-----4---------|--7----7--7----7----7--|
--5----5----5--5----5--|-----------------------|-----------------------|

[ Tab from: http://www.guitartabs.cc/tabs/j/john_frusciante/look_on_btab.html ]
  Q    E  E  E  Q.        Q    Q    E  Q    E     Q    E  E  E  Q.      
-----------------------|-----------------------|-----------------------|
-----------------------|-----------------------|-----------------------|
-----------------------|-----------------------|-------4-----4---------|
-------7-----7---------|--5----5----5--5----5--|-----------------------|


  Q    E  Q    Q    E     Q    E  E  E  Q.        Q    Q    E  Q    E   
-----------------------|-----------------------|-----------------------|
-----------------------|-----------------------|-----------------------|
--7----7--7----7----7--|-----------------------|-----------------------|
-----------------------|-------7-----7---------|--5----5----5--5----5--|


  Q    E  E  E  Q.        Q    E  Q    Q    E     Q    E  E  E  Q.      
-----------------------|-----------------------|-----------------------|
-----------------------|-----------------------|-----------------------|
-------4-----4---------|--7----7--7----7----7--|-----------------------|
-----------------------|-----------------------|-------7-----7---------|


  Q    Q    E  Q    E     Q    E  E  E  Q.        Q    E  Q    Q    E   
-----------------------|-----------------------|-----------------------|
-----------------------|-----------------------|-----------------------|
-----------------------|-------4-----4---------|--7----7--7----7----7--|
--5----5----5--5----5--|-----------------------|-----------------------|


  Q    E  E  E  Q.        Q    Q    E  Q    E     Q    E  E  E  Q.      
-----------------------|-----------------------|-----------------------|
-----------------------|-----------------------|-----------------------|
-----------------------|-----------------------|-------4-----4---------|
-------7-----7---------|--5----5----5--5----5--|-----------------------|


  Q    E  Q    Q    E     Q    E  E  E  Q.        Q    Q    E  Q    E   
-----------------------|-----------------------|-----------------------|
-----------------------|-----------------------|-----------------------|
--7----7--7----7----7--|-----------------------|-----------------------|
-----------------------|-------7-----7---------|--5----5----5--5----5--|


  Q    E  E  E  Q.        Q    E  Q    Q    E     Q    E  E  E  Q.      
-----------------------|-----------------------|-----------------------|
-----------------------|-----------------------|-----------------------|
-------4-----4---------|--7----7--7----7----7--|-----------------------|
-----------------------|-----------------------|-------7-----7---------|


  Q    Q    E  Q    E     Q    E  E  E  Q.        Q    E  Q    Q    E   
-----------------------|-----------------------|-----------------------|
-----------------------|-----------------------|-----------------------|
-----------------------|-------4-----4---------|--7----7--7----7----7--|
--5----5----5--5----5--|-----------------------|-----------------------|


  Q    E  E  E  Q.        Q    Q    E  Q    E     Q    E  E  E  Q.      
-----------------------|-----------------------|-----------------------|
-----------------------|-----------------------|-----------------------|
-----------------------|-----------------------|-------4-----4---------|
-------7-----7---------|--5----5----5--5----5--|-----------------------|


  Q    E  Q    Q    E     Q    E  E  E  Q.        Q    Q    E  Q    E   
-----------------------|-----------------------|-----------------------|
-----------------------|-----------------------|-----------------------|
--7----7--7----7----7--|-----------------------|-----------------------|
-----------------------|-------7-----7---------|--5----5----5--5----5--|


  Q    E  E  E  Q.        Q    E  Q    Q    E     Q    E  E  E  Q.      
-----------------------|-----------------------|-----------------------|
-----------------------|-----------------------|-----------------------|
-------4-----4---------|--7----7--7----7----7--|-----------------------|
-----------------------|-----------------------|-------7-----7---------|


  Q    Q    E  Q    E     Q    E  E  E  Q.        Q    E  Q    Q    E   
-----------------------|-----------------------|-----------------------|
-----------------------|-----------------------|-----------------------|
-----------------------|-------4-----4---------|--7----7--7----7----7--|
--5----5----5--5----5--|-----------------------|-----------------------|


  Q    E  E  E  Q.                            W                 
-----------------------|---------|---------|-------------------|
-----------------------|---------|---------|-------------------|
-----------------------|---------|---------|-------------------|
-------7-----7---------|---------|---------|--2----------------|


  Q    Q    Q    Q       E   E  E  E  E  E  E   E     Q    H.             
----------------------|----------------------------|---------------------|
----------------------|----------------------------|---------------------|
----------------------|---------------------7s--9--|--L----4\------------|
--x----5----5---------|--7h--9--9--9---------------|---------------------|


  W                   Q    Q    Q    Q       E   E  E  E  E  E  Q      
-------------------|----------------------|---------------------------|
-------------------|----------------------|---------------------------|
-------------------|----------------------|---------------------7s----|
--2----------------|--x----5----5---------|--7h--9--9--9--------------|


  Q    H.               W                   Q    Q    Q    Q     
---------------------|-------------------|----------------------|
---------------------|-------------------|----------------------|
--4----4\------------|-------------------|----------------------|
---------------------|--2----------------|--x----5----5---------|


  E   E  E  E  E  E  E   E     Q    H.               W                 
----------------------------|---------------------|-------------------|
----------------------------|---------------------|-------------------|
---------------------7s--9--|--L----4\------------|-------------------|
--7h--9--9--9---------------|---------------------|--2----------------|


  Q    Q    Q    Q       E   E  E  E  E  E  Q        Q    H.             
----------------------|---------------------------|---------------------|
----------------------|---------------------------|---------------------|
----------------------|---------------------7s----|--4----4\------------|
--x----5----5---------|--7h--9--9--9--------------|---------------------|


  W                   Q    Q    Q    Q       E   E  E  E  E  E  E   E   
-------------------|----------------------|----------------------------|
-------------------|----------------------|----------------------------|
-------------------|----------------------|---------------------7s--9--|
--2----------------|--x----5----5---------|--7h--9--9--9---------------|


  Q    H.               W                   Q    Q    Q    Q     
---------------------|-------------------|----------------------|
---------------------|-------------------|----------------------|
--L----4\------------|-------------------|----------------------|
---------------------|--2----------------|--x----5----5---------|


  E  Q    Q    E  Q       E  E  Q    E  E  E  E     E  Q    Q    E  Q     
-----------------------|-------------------------|-----------------------|
-----------------------|-------------------------|-----------------------|
-----------------------|-------------------7-----|-----------------------|
--0--0----0----0--0----|--0--0--0----3--0-----0--|--0--0----0----0--0----|


  E  E  Q    E  E  E  E     E  Q    Q    E  Q       E  E  Q    E  E  E  E   
-------------------------|-----------------------|-------------------------|
-------------------------|-----------------------|-------------------------|
-------------------7-----|-----------------------|-------------------6-----|
--0--0--0----3--0-----0--|--4--4----4----4--4----|--4--4--4----6--4-----4--|


  E  Q    Q    E  Q       E  E  Q    E  E  E  E     Q    Q    E  Q    E   
-----------------------|-------------------------|-----------------------|
-----------------------|-------------------------|-----------------------|
-----------------------|-------------------6-----|-----------------------|
--4--4----4----4--4----|--4--4--4----6--4-----4--|--5----5----5--5----5--|


  Q    E  E  E  Q.        Q    E  Q    Q    E     Q    E  E  E  Q.      
-----------------------|-----------------------|-----------------------|
-----------------------|-----------------------|-----------------------|
-------4-----4---------|--7----7--7----7----7--|-----------------------|
-----------------------|-----------------------|-------7-----7---------|


  Q    Q    E  Q    E     Q    E  E  E  Q.        Q    E  Q    Q    E   
-----------------------|-----------------------|-----------------------|
-----------------------|-----------------------|-----------------------|
-----------------------|-------4-----4---------|--7----7--7----7----7--|
--5----5----5--5----5--|-----------------------|-----------------------|


  Q    E  E  E  Q.        Q    Q    E  Q    E     Q    E  E  E  Q.      
-----------------------|-----------------------|-----------------------|
-----------------------|-----------------------|-----------------------|
-----------------------|-----------------------|-------4-----4---------|
-------7-----7---------|--5----5----5--5----5--|-----------------------|


  Q    E  Q    Q    E     Q    E  E  E  Q.        Q    Q    E  Q    E   
-----------------------|-----------------------|-----------------------|
-----------------------|-----------------------|-----------------------|
--7----7--7----7----7--|-----------------------|-----------------------|
-----------------------|-------7-----7---------|--5----5----5--5----5--|


  Q    E  E  E  Q.        Q    E  Q    Q    E     Q    E  E  E  Q.      
-----------------------|-----------------------|-----------------------|
-----------------------|-----------------------|-----------------------|
-------4-----4---------|--7----7--7----7----7--|-----------------------|
-----------------------|-----------------------|-------7-----7---------|


  Q    Q    E  Q    E     Q    E  E  E  Q.        Q    E  Q    Q    E   
-----------------------|-----------------------|-----------------------|
-----------------------|-----------------------|-----------------------|
-----------------------|-------4-----4---------|--7----7--7----7----7--|
--5----5----5--5----5--|-----------------------|-----------------------|


  Q    E  E  E  Q.        Q    Q    E  Q    E     Q    E  E  E  Q.      
-----------------------|-----------------------|-----------------------|
-----------------------|-----------------------|-----------------------|
-----------------------|-----------------------|-------4-----4---------|
-------7-----7---------|--5----5----5--5----5--|-----------------------|


  Q    E  Q    Q    E     Q    E  E  E  Q.        Q    Q    E  Q    E   
-----------------------|-----------------------|-----------------------|
-----------------------|-----------------------|-----------------------|
--7----7--7----7----7--|-----------------------|-----------------------|
-----------------------|-------7-----7---------|--5----5----5--5----5--|


  Q    E  E  E  Q.        Q    E  Q    Q    E     Q    E  E  E  Q.      
-----------------------|-----------------------|-----------------------|
-----------------------|-----------------------|-----------------------|
-------4-----4---------|--7----7--7----7----7--|-----------------------|
-----------------------|-----------------------|-------7-----7---------|


  Q    Q    E  Q    E     Q    E  E  E  Q.        Q    E  Q    Q    E   
-----------------------|-----------------------|-----------------------|
-----------------------|-----------------------|-----------------------|
-----------------------|-------4-----4---------|--7----7--7----7----7--|
--5----5----5--5----5--|-----------------------|-----------------------|


  Q    E  E  E  Q.                                                        
-----------------------|---------|---------|---------|---------|---------|
-----------------------|---------|---------|---------|---------|---------|
-----------------------|---------|---------|---------|---------|---------|
-------7-----7---------|---------|---------|---------|---------|---------|
 
Comments