John Frusciante - In Rime Chords & Tabs

 

In Rime Chords & Tabs

John Frusciante Chords & Tabs

Version: 1 Type: Tab 0 ratings
1 star 2 stars 3 stars 4 stars 5 stars
comments

In Rime Tab

   
-=-=-=-=-=-=-=-=-=-=-=-=-=--=-=-=-
John Frusciante - In Rime 2:13
-=-=-=-=-=-=-=-=-=-=-=-=-=--=-=-=-
L & M: John Frusciante
Track 13 From:
To Record Only Water For Ten Days
2001 Niandra Lades BMI Music.
Transcribed By Leandro Koren.
Leandro_koren@yahoo.com.ar
-=-=-=-=-=-=-=-=-=-=-=-=-=--=-=-=-


C  Em Am
I fail to do 
C Em Am
what I'm trying 
C Em Am
I've been these walls 
C Em Am
And everyone who dies hears others 
F Em Dm
times 

C Em Am
This immediacy 
C Em Am
is unknown 
C Em Am
to me and appears to be 
C Em Am
unreached by everyone I've 
F Em Dm
known 

F                 E           Dm Am
Show me unfocused fears in disguise 
F                  E        Dm Am
It shows me I must live to die 

C Em Am
This lake 
C Em Am
is on fire 
C Em Am
It's been every dream to me 
C Em Am
it's been every 
F Em Dm
desire 

C Em Am
I awaken 
C Em Am
Filling up the space 
C Em Am
I back away 
C Em Am
And it covers me up all 
F Em Dm
cozy 

F                   E        Dm Am
These waves are the call of time 
F                          E
What's sent ahead is sent behind 
Dm Am
As in rime


Chords:
[ Tab from: http://www.guitartabs.cc/tabs/j/john_frusciante/in_rime_tab.html ]
    C     Em   Am     E     Dm    F
E|--0--|--0--|--0--|--0--|--1--|--1--|
B|--1--|--0--|--1--|--0--|--3--|--1--|
G|--0--|--0--|--2--|--1--|--2--|--2--|
D|--2--|--2--|--2--|--2--|--0--|--3--|
A|--3--|--2--|--0--|--2--|--X--|--3--|
e|--X--|--0--|--X--|--0--|--X--|--1--|


-=-=-=-=-=-=-=-=-
Another Version:
-=-=-=-=-=-=-=-=-

Dropped D Tuning:


E|---------------------------------|---------------------------------|
B|---------------------------------|---------------------------------|
G|-----0-----0-------------2-------|-----0-----0-----------------2---|
D|---------------------2-------2---|---------------------2-----------|
A|-3-----2-----0-------------------|-3-----2-----0-------------------|
D|---------------------------------|---------------------------------|
  
E|---------------------1---1-1-1---|---------------------1---1-1-1---|
B|---------------------3---3-3-3---|---------------------3---3-3-3---|
G|-----0-----0---------2---2-2-2---|-----0-----0---------2---2-2-2---|
D|-------------0-------0---0-0-0---|-------------0-------0---0-0-0---|
A|---------------------0---0-0-0---|---------------------0---0-0-0---|
D|-3-----2-----0-------------------|-3-----2-----0-------------------|
 
E|---------------------------------|---------------------------------|
B|-1--------1--1-1-----1---1-1-1---|-0-------0---0-0-----0---0-0-0---|
G|-2-------2---2-2-----2---2-2-2---|-1-------1---1-1-----1---1-1-1---|
D|-3-------3---3-3-----3---3-3-3---|-2-------2---2-2-----2---2-2-2---|
A|-3-------3----3-3----3---3-3-3---|-2-------2---2-2-----2---2-2-2---|
D|---------------------------------|---------------------------------|

E|-1-----1-1---0-------0---0-0-0---|
B|-3-----3-3---1-------1---1-1-1---|
G|-2-----2-2---2-------2---2-2-2---|
D|-0-----0-0---2-------2---2-2-2---|
A|-0-----0-0---0-------0---0-0-0---|
D|-0-----0-0-----------------------|

-=-=-=-=-=-=-=-=-=-=-=-=-=--=-=-=-=-=--=-=-=-=-=-=-=-=-=-=-=-=-=--=-=-=-=-=--
Produce By John Frusciante
Mixed By Jimmy Boyled
Mixing Assisted By Brian Grimmel
Mastered By Vlado Meller At Sony Music Studio, New York.
-=-=-=-=-=-=-=-=-=-=-=-=-=--=-=-=-=-=--=-=-=-=-=-=-=-=-=-=-=-=-=--=-=-=-=-=--
Comments