John Frusciante - Going Inside Chords & Tabs

 

Going Inside Chords & Tabs

John Frusciante Chords & Tabs

Version: 1 Type: Tab 0 ratings
1 star 2 stars 3 stars 4 stars 5 stars
comments

Going Inside Tab

   
Going Inside
Artist: John Frusciante
Tabbed by Ratmer (Ratmer@gmx.at)

Standard tuning

Intro / Chorus
  
    Gm       C
E|--3-3-3-3-----------------------------------------------
B|--3-3-3-3--5-5-5-5------6--------3--------6--------3----
G|--3-3-3-3--5-5-5-5--------------------------------------
D|--5-5-5-5--5-5-5-5----8---8----5---5----8---8----5---5--
A|--5-5-5-5--3-3-3-3--6--------3--------6--------3--------
E|--3-3-3-3-----------------------------------------------


Intro-Solo  w/slide & heavy distortion


E|--------------------------------------------------------
B|--15-18------------------------------------------15-15--
G|---------12-17-15-14-12-10-12-12-10-12-12-10------------
D|----------------------------------------------12--------
A|--------------------------------------------------------
E|--------------------------------------------------------


E|--------------------------------------------------------
B|--15-15-15-15-15-15-15-15-15-16-15-15-11-8-15-----------
G|----------------------------------------------12-12-12--
D|--------------------------------------------------------
A|--------------------------------------------------------
E|--------------------------------------------------------


Verse
[ Tab from: http://www.guitartabs.cc/tabs/j/john_frusciante/going_inside_tab.html ]
    Gm       F        C        d#sus4         
E|--3-3-3-3--1-1-1-1--0-0-0-0-----------
B|--3-3-3-3--1-1-1-1--1-1-1-1--3-3-3-3--
G|--3-3-3-3--2-2-2-2--0-0-0-0--3-3-3-3--
D|--5-5-5-5--3-3-3-3--2-2-2-2--1-1-1-1--
A|--5-5-5-5--3-3-3-3--3-3-3-3-----------
E|--3-3-3-3--1-1-1-1--------------------


Bridge

    A# F  cm fm           A# F  cm D#
E|--6--1------------------6--1----------------
B|--6--1--4--11-11-11-11--6--1--4--8-8-8-8-8--
G|--7--2--5--12-12-12-12--7--2--5--8-8-8-8-8--
D|--8--3--5--12-12-12-12--8--3--5--8-8-8-8-8--
A|--8--3--3--10-10-10-10--8--3--3--6-6-6-6-6--
E|--6--1------------------6--1----------------





Outro

   A# F  C
E|--6--1----------------------------------------------------------------
B|--6--1--5-5-5-5-5-5------6--------3--------6--------3-----------------
G|--7--2--5-5-5-5-5-5---------------------------------------------------
D|--8--3--5-5-5-5-5-5----8---8----5---5----8---8----5---5--3-3-3-3-3-3--
A|--8--3--3-3-3-3-3-3--6--------3--------6--------3--------3-3-3-3-3-3--
E|--6--1---------------------------------------------------1-1-1-1-1-1--



End:

    Gm
E|--3--
B|--3--
G|--3--
D|--5--
A|--5--
E|--3--
	Let it ring!

That's it. It's a great song by a great artist! If you have questions or suggestions, feel free to e-mail me!
Comments