John Frusciante - Forever Away Chords & Tabs

 

Forever Away Chords & Tabs

John Frusciante Chords & Tabs

Version: 1 Type: Tab

Forever Away Tab

If you have trouble with the fingering you can capo the 4th fret and play an Aminor
shape, or downtune to Eb (one fret/semitone down) and play the whole riff on an open
Dminor shape. The two riffs are repeated with the same rhythm throughout, which
alternates between 3/4 and 4/4. There may be a couple of odd bars of 7/8, if you
really want to be authentic.
-------------------------------------------------------------------------------
			     FOREVER AWAY - John Frusciante
Brown Bunny EP
Tab - Tofi
mail - minitofi@hotmail.com

Tuning:                         Riff 1
[ Tab from: http://www.guitartabs.cc/tabs/j/john_frusciante/forever_away_tab.html ]
e|---------------------------------------------------------------------------|
B|--------5----------------------------------5---------4---------4-----------|
G|--------6-------------------------6-----------6----------6-----------------|
D|--------6-----------------------------6----------6----------6--------------|
A|--------4---------------------4--------------------------------------------|
E|---------------------------------------------------------------------------|

                                Riff 2

e|---------------------------------------------------------------------------|
B|--------------------------------7--------------4---------------4-------4---|
G|----------------------6--------------6---------------6-------------6-------|
D|--------------------------6---------------6---------------6----------------|
A|----------------4----------------------------------------------------------|
E|---------------------------------------------------------------------------|