John Frusciante - Fallout Chords & Tabs

 

Fallout Chords & Tabs

John Frusciante Chords & Tabs

Version: 1 Type: Tab 0 ratings
1 star 2 stars 3 stars 4 stars 5 stars
comments

Fallout Tab

Artist: John Frusciante

Music: Fallout
CD: "To record only water for ten days"
Tablature by Coutinho
My e-mail: frusciante@clix.pt

    The Intro is played with two guitars. One playes 
the "riff" and the other playes a strange sound, 
difficult to tab.

    Riff

e|-----------------------8---10---|
B|--------------------------------|
G|-------9--10------10------------|
D|---7-----------8----------------| 
A|--------------------------------|
E|--------------------------------|
    Play it 11 times and end with this:

e|-----------------------8----|
B|----------------------------|
G|-------9--10------10--------|
D|---7-----------8------------|
A|----------------------------|
E|----------------------------|

    Riff II
[ Tab from: http://www.guitartabs.cc/tabs/j/john_frusciante/fallout_tab.html ]
e|-----------------------------------------------------|
B|-----------------------------------------------------|
G|------------7-----------2------------9-----------3---|
D|---------8-----------3------------10----------5------|
A|------8-----------3-----------10-----------5---------|
E|---6-----------1-----------8------------3------------|
    Play it 3 times
    
    Riff III

e|---------1---------------------------------------|
B|---------1----------1----------1---(1)1-1-1--1---|
G|---------2----------2----------2----2-2-2-2--2---|
D|---3--3--3----3--3--3----3--3--3----3-3-2-2--2---|
A|---3--3--3----3--3--3----3--3--3----3-3-3-3--3---|
E|---1--1--1----1--1-------1--1--------------------|
         
    End = Riff 2 times and this:

e|-----------------------8---10----------|
B|--------------------------------6~~~---|
G|-------9--10------10------------5~~~---|
D|---7-----------8----------------6~~~---|
A|--------------------------------5~~~---|
E|---------------------------------------|

        This is a great song by John Frusciante.
        I hope you'll like it!!!

:: http://www.ultimate-guitar.com

Comments