John Frusciante - Emptiness Chords & Tabs

 

Emptiness Chords & Tabs

John Frusciante Chords & Tabs

Version: 1 Type: Tab 0 ratings
1 star 2 stars 3 stars 4 stars 5 stars
comments

Emptiness Tab

Artist: John Frusciante
Song: Emptiness
Album: Inside of oemptiness

Tabbed by Knut Zetterstrøm. date; 3 july 2005

A very simple song by JF.


Verse: (I think you can figure out how the rythem is yourself;) )
e|------------------------------------------------------------------------|
B|------------------------------------------------------------------------|
G|------------------------------------------------------------------------|
D|-------3--3-----------2--2-----------3--3-----------2--2----------------|
A|-5--5--------5--0--0--------0-----------------0--0--------0-------------|
E|-------------------------------1--1--------1----------------------------|
[ Tab from: http://www.guitartabs.cc/tabs/j/john_frusciante/emptiness_tab.html ]
e|------------------------------------------------------------------------|
B|------------------------------------------------------------------------|
G|------------------------------------------------------------------------|
D|-------3--3-----------2h3p2----------3--3-----------2--2----------------|
A|-5--5--------5--0--0--------0-----------------0--0--------0-------------|
E|-------------------------------1--1--------1----------------------------|

Turn on your distortion sound!!! :D

Chours:
e|---------------------------------------------------------|
B|-6-6-6-6-6-6---------------------------------------------|
G|-7-7-7-7-7-7--5-5-5-5-5-5--6-6-6-6-6-6-6-6-6-6-6-6-------|
D|-7-7-7-7-7-7--5-5-5-5-5-5--7-7-7-7-7-7-7-7-7-7-7-7-------|
A|-5-5-5-5-5-5--3-3-3-3-3-3--7-7-7-7-7-7-7-7-7-7-7-7-------|
E|---------------------------5-5-5-5-5-5-5-5-5-5-5-5-------|

And the last part of the chours goes like this:

e|--3-3-3-3-3-3--5-5-5-5-5-5----------|
B|--3-3-3-3-3-3--5-5-5-5-5-5----------|
G|--4-4-4-4-4-4--6-6-6-6-6-6----------|
D|--5-5-5-5-5-5--7-7-7-7-7-7----------|
A|--5-5-5-5-5-5--7-7-7-7-7-7----------|
E|--3-3-3-3-3-3--5-5-5-5-5-5----------|


The timing ain't perfect on the chords and stuff, but it's easy to find out if you 
to the song. Have fun playing, ROCK ON noda!!
Comments