John Frusciante - Dissolve Chords & Tabs

 

Dissolve Chords & Tabs

John Frusciante Chords & Tabs

Version: 1 Type: Tab 0 ratings
1 star 2 stars 3 stars 4 stars 5 stars
comments

Dissolve Tab

   
John Frusciante - Dissolve
by PINCHO
jjrt2112@hotmail.com

here are all the parts in order figure out the changes

D#m add9 - B# add9 x3

A - B# add9
                                           x2                           x2
|-12---9-------------------------------------|-14---12---9----------------|
|---12--9--12---9----------------------------|---14---12--9--12---9-------|
|------------11--9-11----9-------------------|-----------------11--9------|
|--------------------11---9-11---9-----------|----------------------------|
|-----------------------------11--9-11---9---|----------------------------|
|-------------------------------------12--9--|----------------------------|

|-16p14----14p12-12---9--------------------------------|
|-------14---------12--9-12---9------------------------|
|--------------------------11--9--11---9---------------|
|-----------------------------------11--9-11---9-------|
|-------------------------------------------11--9------|
|------------------------------------------------------|


D#m add9 - B# add9 x3

A - B# add9


F#m - G#m - A - E - B x3

A - B

G#m - A - E - F#m x2

G#m - A - E - B

G#m - A - E - F#m



Solo 1:

|-12b-12br-9----9----9---9--------------------------------------------------------|
|----------12b--12b--12b-12b--10-12-10h12p10-9-10--10-10-10-10-10-10-10-/9-9-9-9-9|
|---------------------------------------------------------------------------------|
|---------------------------------------------------------------------------------|
|---------------------------------------------------------------------------------|
|---------------------------------------------------------------------------------|


|---------------------------------------------------------------------|
|9-9-9-9/7-7-7-7-7-7--9b-9b-9br7-5-5h7--2-2--2---2--2-----------------|
|--------------------------------------------4b--4b-4b----------------|
|---------------------------------------------------------------------|
|---------------------------------------------------------------------|
|---------------------------------------------------------------------|





G#m - A - E - F#m x3

G#m - A - E - fig.1

[ Tab from: http://www.guitartabs.cc/tabs/j/john_frusciante/dissolve_tab.html ]
 fig.1    
                                                 1(then play A)   2 (solo 2)
|-----------------------------------------------|-----------------|--------------|
|----7---5--10-9-----7---7-9--5-----------------|-----------------|-9h12p9-------|
|---8----6---------9-----8-------6--------------|------9-11p9-----|--------9-----|
|--9----7--------------9--------7---9/11-9/11---|-9/11--------11--|----------11--|
|-----------9-----------------------9/11-9/11---|-----------------|--------------|
|-7----5-------9-----7--------5-----7/9--7/9----|-----------------|--------------|


(A)

|-----14-------12----------16------14-------12------12--------------------|
|-/12----12/10----10/14---------12----12/10----10/9-----------------------|
|-------------------------------------------------------------------------|
|-------------------------------------------------------------------------|
|-------------------------------------------------------------------------|
|-------------------------------------------------------------------------|


|-----14-------12----------16------14-------12------12-12-12h14p12--------|
|-/12----12/10----10/14---------12----12/10----10/9-------------------14--|
|-------------------------------------------------------------------------|
|-------------------------------------------------------------------------|
|-------------------------------------------------------------------------|
|-------------------------------------------------------------------------|

solo 2:

|-16-14-12-14----------12-----------------------------------------|
|-------------14--12-14----14-14/------------------12-------------|
|----------------------------------13-11----11-11b----13----------|
|----------------------------------------14-----------------------|
|-----------------------------------------------------------------|
|-----------------------------------------------------------------|


|-----------------------------------------------------------------|
|-----------------------12----------------------------------------|
|-13-14-13h14p13-----13-----14-13-14--13h14p13-----11b---9-8-9----|
|----------------14----------------------------14-----------------|
|-----------------------------------------------------------------|
|-----------------------------------------------------------------|


|-----------------------------------------------------------------|
|-----------------------------------------------------------------|
|-8-6-4-2--6br----------------------------------------------------|
|--------------6--------------------------------------------------|
|-----------------------------------------------------------------|
|-----------------------------------------------------------------|


D#m add9        B# add9           A

e|-11|		|-9-|		|-5-|	
B|-9-|		|-7-|		|-5-|		
G|-9-|		|-8-|		|-6-|		
D|-11|		|-9-|		|-7-|		
A|-x-|		|-x-|		|-x-|		
E|-x-|		|-X-|		|-X-|
Comments