John Frusciante - Before The Beginning Chords & Tabs

 

Before The Beginning Chords & Tabs

John Frusciante Chords & Tabs

Version: 1 Type: Bass Tab 0 ratings
1 star 2 stars 3 stars 4 stars 5 stars
comments

Before The Beginning Bass Tab

John Frusciante
The Empyrean
Before The Beginning

Starts at 00:40 (One beat after the first snare hit)
[ Tab from: http://www.guitartabs.cc/tabs/j/john_frusciante/before_the_beginning_btab.html ]
G|----------9----7----12--------5--------|
D|---------------------------------------| x1
A|----------7----5----10--------3--------|
E|---------------------------------------|

G|-9--------9----7----12--------5--------|
D|---------------------------------------|
A|-7--------7----5----10--------3--------|  x The rest of the song
E|---------------------------------------|


10 minutes of this kills my fingers. Watch out for that.
Comments