John Frusciante - Another Chords & Tabs

 

Another Chords & Tabs

John Frusciante Chords & Tabs

Version: 1 Type: Bass Tab 0 ratings
1 star 2 stars 3 stars 4 stars 5 stars
comments

Another Bass Tab

repeat through whole song 
|---------------------------------------------------------------|
|--0h1----------------------------------------------------------|
|------------2h3------------------------------------------------|
|------0--3-----------------------------------------------------|
or like this of course
|---------------------------------------------------------------|
|---------------------------------------------------------------|
|--5h6----------------------------------------------------------|
|------0--3--7h8------------------------------------------------|
thnx 
more ataxia bass lines coming soon, to a pc near you.
[ Tab from: http://www.guitartabs.cc/tabs/j/john_frusciante/another_btab.html ]
Comments