John Frusciante - A Loop Chords & Tabs

 

A Loop Chords & Tabs

John Frusciante Chords & Tabs

Version: 1 Type: Tab 0 ratings
1 star 2 stars 3 stars 4 stars 5 stars
comments

A Loop Tab

The Will To Death
John Frusciante - A Loop

------------------------|
------------------------|
-------4---4------------|
---2-2---2--------------|
-repeat couple of times-|
------------------------|

[ Tab from: http://www.guitartabs.cc/tabs/j/john_frusciante/a_loop_tab.html ]
-------------------------------------------------------------------------|
-------------------------------------------------------------------------|
-------4---4------2---2--------------------------------------------------|
---2-2---2----0-0---0--------5--5-------4---4----------------------------|
-------------------------3-3---3----2-2---2---------7---7-------5----5---|
------------------------------------------------5-5---5-----3-3---3------|

well i just bought the album and this song was the one i REALLY liked and i've played it 
for myself.
it sounds like the way john plays it but im not sure!
Comments