John Fogerty - The Old Man Down The Road Chords & Tabs

 

The Old Man Down The Road Chords & Tabs

John Fogerty Chords & Tabs

Version: 1 Type: Tab 0 ratings
1 star 2 stars 3 stars 4 stars 5 stars
comments

The Old Man Down The Road Tab

Tabbed by: Philvanwileo
Email:

Tuning:standard
[ Tab from: http://www.guitartabs.cc/tabs/j/john_fogerty/the_old_man_down_the_road_tab.html ]
e|-----------------------------------------------------------------------------------|
B|-----------------------------------------------------------------------------------|
G|-----------------------------------------------------------------------------------|
D|-----------5--------7------7^9------5----------------------------------------------|
A|--------------------------------------------7--------5-----------------------------|
E|-------------------------------------------------------------7-------5-------------|

e|---------------------------------|
B|---------------------------------|
G|---------------------------------|
D|---------------------------------|
A|-------7----------------------7--|
E|------------------7--------------|This is my first tab. i think its mostly correct
Comments