John Fogerty - Rockin All Over The World Chords & Tabs

 

Rockin All Over The World Chords & Tabs

John Fogerty Chords & Tabs

Version: 1 Type: Bass Tab 0 ratings
1 star 2 stars 3 stars 4 stars 5 stars
comments

Rockin All Over The World Bass Tab

                        Rockin All Over the World
  
By: John Fogerty
Tabbed By: Lee Spurrell
leespurrell@hotmail.com


    Main Riff                                                           
G-----------------------------------------------------------------------
D-----------------------------------------------------------------------
A---5--5--5--5--5--5--5--5--5--5--5--5--5--5--5--5----------------------
E---------------------------------------------------3--3--3--3--3--3----
                                                                        

                                                                        
G-----------------------------------------------------------------------
D-----------------------------------------------------------------------
A---------------------------------5--5--5--5--5--5--5--5----------------
E---3--3--3--3--3--3--3--3--3--3--------------------------5--5--5--5----
                                                                        

                                                                        
G-----------------------------------------------------------------------
D-----------------------------------------------------------------------
A---------------5--5--5--5--5--5--5--5--5--5--5--5--5--5--5--5----------
E---5--5--5--5----------------------------------------------------------
                                                                        

    Ending Riff                                                         
G-----------------------------------------------------------------------
D-----------------------------------------------------------------------
A---5--5--5--5--5--5--5--5--5--5--5--5--5--5--5--5----------------------
E---------------------------------------------------3--3--3--3--3--3----
                                                                        

                                                                        
G-----------------------------------------------------------------------
D-----------------------------------------------------------------------
A---------------------------------5--5--5--5--5--5--5--5----------------
E---3--3--3--3--3--3--3--3--3--3--------------------------5--5--5--5----
                                                                        
[ Tab from: http://www.guitartabs.cc/tabs/j/john_fogerty/rockin_all_over_the_world_btab.html ]
                                                                        
G-----------------------------------------------------------------------
D-----------------------------------------------------------------------
A---------------5--5--5--5--5--5--5--5--5--5--5--5--5--5--5--5-----5----
E---5--5--5--5----------------------------------------------------------
                                                                        

                                                                        
G-----------------------------------------------------------------------
D-----------------------------------------------------------------------
A---5--5--5--5--5--5--5--------------------------0--5--5-----5----------
E------------------------5--5--5--5--5--5--5--5-----------5-------------
                                                                        



========================================================================
==                       TABLATURE EXPLANATION                        ==
========================================================================

----------                ----------                ----t---
----5h8--- Hammeron       ----(8)--- Ghost          ----6--- Tap
----------                ---------- Note           --------
----5p8--- Pulloff        ----------                --------

----------                ----------                -----p--
----5/8--- Slide Up       -----x---- Dead           -----7-- Pop
----------                ---------- Note           --s-----
----5\8--- Slide Down     ----------                --5----- Slap 

----------                ||------|| Repeat         --------
----5~~~-- Vibrato        ||*----*||                ---5^--- Bend
----------                ||*----*||                --------
----------                ||------||                --------

----------                ----------                --------
-4:------- Time           ----------                --------
-4:------- Signature      ----------                --------
----------                ----------                --------

Rhythm:
  w = whole note            W = dotted whole
  h = half note             H = dotted half
  q = quarter note          Q = dotted quarter
  e = eighth note           E = dotted eighth
  s = sixteenth note        S = dotted sixteenth
  t = 32nd note             T = dotted 32nd
  x = 64th note             X = dotted 64th
  ^ = triplet

========================================================================
==            Created with a demo version of BUCKET O' TAB            ==
==              tablature creation software for Windows               ==
==                  For more info email gse@his.com                   ==
========================================================================
Comments