John Denver - Annies Song Chords & Tabs

 

Annies Song Chords & Tabs

John Denver Chords & Tabs

Version: 2 Type: Tab 0 ratings
1 star 2 stars 3 stars 4 stars 5 stars
comments

Annies Song Tab

   
Hey this is my first tab, and i hope it sounds right. If there are any mistakes
or were you think it could be altered, please email me at joekeens@hotmail.com

So here it is:

             F  G            F        C              G        F  G
e|------------------|-----------------------|-----------------------|
B|--1--1--0---1--0--|-----------0--1--------|--------------0--1--0--|
G|----------2-------|--2--2--2--------0-----|--0--0--0--2-----------|
D|------------------|--------------------2--|-----------------------|
A|------------------|-----------------------|-----------------------|
E|------------------|-----------------------|-----------------------|
[ Tab from: http://www.guitartabs.cc/tabs/j/john_denver/annies_song_tab_ver_2.html ]
          F        G                  F  G           F        C
e|--------------------|---------------------|-----------------------|
B|-----------0--1--0--|--1--1--1--0---1--0--|-----------0--1--------|
G|--2--2--2-----------|-------------2-------|--2--2--2--------0-----|
D|--------------------|---------------------|--------------------2--|
A|--------------------|---------------------|-----------------------|
E|--------------------|---------------------|-----------------------|

       G        F  G                 C
e|--------------------|-----------------|
B|-----------0--1--0--|-----0--1--3--1--|
G|--0--0--2-----------|--2--------------|
D|--------------------|-----------------|
A|--------------------|-----------------|
E|--------------------|-----------------|
Comments