John Cougar Mellencamp - Small Town Chords & Tabs

 

Small Town Chords & Tabs

John Cougar Mellencamp Chords & Tabs

Version: 1 Type: Tab 0 ratings
1 star 2 stars 3 stars 4 stars 5 stars
comments

Small Town Tab

John cougar mellemcamp
small town
Tabbed by Jj mig (spam)
sfichtner@trevornet.org
[ Tab from: http://www.guitartabs.cc/tabs/j/john_cougar_mellencamp/small_town_tab.html ]
This song is so good, play it accostic
there is a capo on 2,
so....
------------2-2--------------------------------------------------------------|
--2-2-------3-3--------------------------------------------------------------|
--2-2--1-1--2-2--1-1---------------------------------------------------------|
--2-2--2-2-------2-2---------------------------------------------------------|
-------2-2-------2-2---------------------------------------------------------|
-----------------------------------------------------------------------------|
that's it basically the chords with the capo are AA EE DD EE

If you don't have or don't no what a capo is, you can do this

e|--2-2---2-2---3-3----2-2--------------------------------------------------|
B|--4-4---2-2---4-4---2-2---------------------------------------------------|
G|--4-4---3-3---3-3---3-3---------------------------------------------------|
D|--4-4---4-4---2-2---4-4---------------------------------------------------|
A|--2-2---4-4---2-2---4-4---------------------------------------------------|
E|--2-2---2-2---2-2---2-2---------------------------------------------------|

the first ones easy but if you don't have a capo there u go
Comments