John Cale - Hunt Chords & Tabs

 

Hunt Chords & Tabs

John Cale Chords & Tabs

Version: 1 Type: Tab 0 ratings
1 star 2 stars 3 stars 4 stars 5 stars
comments

Hunt Tab

   
tabbed by smuk                        
from the carribean sunset album

                         JOHN CALE - THE HUNT

  B-                  A                  B-                 A

e|-------------------|------------------|------------------|--------5------|
B|-----------5--7----|--5---------------|-----------5--7---|--5------------|
G|--4--6--7----------|----------6-------|--4--6--7---------|---------------|
D|-------------------|------------------|------------------|---------------|
A|-------------------|------------------|------------------|---------------|
E|-------------------|------------------|------------------|---------------|

e|-------------------|------------------|------------------|--------5------|
B|-----------5--7----|--5---------------|-----------5--7---|--5------------|
G|--4--6--7----------|----------6-------|--4--6--7---------|---------------|
D|-------------------|------------------|------------------|---------------|
A|-------------------|------------------|------------------|---------------|
E|-------------------|------------------|------------------|---------------|


  B-                                                           A
  When you feel the crush in the streets and the people in the city
                    B-                A
  and the walls are closing in, in on you
      B-
  you gotta get out of town, get away
      A                        B-        A
  get away for the weekend Hey hey - Hey hey

e|-------------------|------------------|------------------|--------5------|
B|-----------5--7----|--5---------------|-----------5--7---|--5------------|
G|--4--6--7----------|----------6-------|--4--6--7---------|---------------|
D|-------------------|------------------|------------------|---------------|
A|-------------------|------------------|------------------|---------------|
E|-------------------|------------------|------------------|---------------|

  B-                                                       A
  You find when you get there, you've been dreaming in the city
                  B-         A
  Dreaming in the city - Hey Hey
            B- 
  There's a place we found, when they're running with the hounds
  A                                                 B-        A
  Riding in the country, riding with the hounds Hey hey - Hey hey


  Ab                  Gb-                Ab                 E-

[ Tab from: http://www.guitartabs.cc/tabs/j/john_cale/hunt_tab.html ]
e|-------------------|------------------|------------------|--------5------|
B|-----------5--7----|--5---------------|-----------5--7---|--5------------|
G|--4--6--7----------|----------6-------|--4--6--7---------|---------------|
D|-------------------|------------------|------------------|---------------|
A|-------------------|------------------|------------------|---------------|
E|-------------------|------------------|------------------|---------------|

  B-                                  A
  In the brisk damn cold morning, the horses are restless
                          B-            A
  The horses are ready to run, let them run
  B-
  Here comes the fox, here comes the hounds
  A                                                 B-         A
  you follow the scent, you follow the blood on the ground Hey hey


  Ab                  Gb-                Ab                 E-

  Db         D        Db         B-      Db         D        Db         B-
  Db         D        Db         B-      Db         D        Db         B-

Solo:
  
  B-                  A                  B-                 A
  B-                  A                  B-                 A

  B-                            A
  Dreamers, Dreamers, Dreamers, Dreaming of the hunt
  B-                            A
  Dreamers, Dreamers, Dreamers, Dreaming of the city
  B-
  Ready to discover the taste of the fight
  A                                              B-       A
  Ready to do the same and discover the dream of man, aaaaargh

  Ab                  Gb-                Ab                 E-
  Db         D        Db         B-      Db         D        Db         B-
  Db         D        Db         B-      Db         D        Db         B-
  Eb         E-       Eb         Db      Eb         E-       Eb         Db
  Eb         E-       Eb         Db      Eb         E-       Eb         Db
  Eb         E-       Eb         Db      



that's it!! corrections welcome at snuky13@hotmail.com
Comments