John Butler Trio - Zebra Chords & Tabs

 

Zebra Chords & Tabs

John Butler Trio Chords & Tabs

Version: 2 Type: Tab 0 ratings
1 star 2 stars 3 stars 4 stars 5 stars
comments

Zebra Tab

This How To Play "Zebra" By The John Butler Trio 
This Is The Only Way To Play It
It Is RIGHT!

[ Tab from: http://www.guitartabs.cc/tabs/j/john_butler_trio/zebra_tab_ver_2.html ]
E|---------------------------------------------------------|
B|---------------------------------------------------------|
G|-4-4-4-2-4-----------------------------------------------|
D|-----------2-4-2-4-4---0-0-2-0-2------3-2-0---0----------|
A|----------------------------------0-2-------2------------|
E|---------------------------------------------------------|

E|---------------------------------------------------------|
B|-----3-2-0-----------------------------------------------|
G|-4-4-----------------------------------------------------|
D|-----------2-4-2-4-4---0-0-2-0-2------3-2-0---0----------|
A|----------------------------------0-2-------2------------|
E|---------------------------------------------------------|

Tabbed By Dale Majid Please Leave A Rating (5 Stars) As This is My First Tab!

Enjoy!
Comments