John Butler Trio - Zebra Chords & Tabs

 

Zebra Chords & Tabs

John Butler Trio Chords & Tabs

Version: 3 Type: Bass Tab

Zebra Bass Tab

   
    SONG NAME - Band Name
-------------------------------------------------------------------------------

Tabbed By : Double Basser
e-mail: double_basser@hotmail.com

This is 100% Correct 
(although there ar little licks often added)

Tuning: EADG

Chorus, Intro & Guitar Solo
G|------------------------------------|
D|9-9-7-9-----------------------------|
A|--------7-9-7-9--5-5-7-5-7-5------5-|
E|------------------------------5-3---|

Variation
G|---------------------------------------|
D|9-9/11\7-9-----------------------------|
A|-----------7-9-7-9--5-5-7-5-7-5------5-|
E|---------------------------------5-3---|
[ Tab from: http://www.guitartabs.cc/tabs/j/john_butler_trio/zebra_btab_ver_3.html ]
Verse & Spoon Solo
G|------------------------------------|
D|9-9---------------------------------|
A|--------7-9-7-9--5-5--------------5-|
E|------------------------------5-3---|

Bridge
G|---------------------------------------------7h9-15h17-----------------------|
D|7-7--5p3------------------------3h5--7-7-7h9------------7-7--5p3-------------|
A|---------5p3----------------3h5----------------------------------5p3---------|
E|-------------5p3-0-0-3h5---------------------------------------------5p3-----|


| /  slide up
| \  slide down
| h  hammer-on
| p  pull-off
| ~  vibrato
| +  harmonic
| x  Mute note
===============================================================================