John Butler Trio - Zebra Chords & Tabs

 

Zebra Chords & Tabs

John Butler Trio Chords & Tabs

Version: 1 Type: Bass Tab 0 ratings
1 star 2 stars 3 stars 4 stars 5 stars
comments

Zebra Bass Tab

tabbed by Nick
da_funky_rabbit@hotmail.com
there was no damn bass tab on this site so i put 1 on

intro 
|------------------------------------------------------|
|-7h9-9-9-7-9------------------------------------------| 
|--------------7-9-7-9---9\5-5-5-7-5-7-------8p7--5----|
|--------------------------------------5h7----------7--|


Verse
|-------11-11---------------|
|-9--9---------12--12--9--9-| 
|-------9--9----------------|
|-7--7---------10--10--7--7-|


chorus (1)
|------------------------------------------------------|
|-7h9-9-9-7-9------------------------------------------| 
|--------------7-9-7-9---9\5-5-5-7-5-7-------8p7--5----|x2
|--------------------------------------5h7----------7--|

|------------------------------------------------10p9-7---|
|-7h9-9-9/12-11-9--7h9-7h9--7-9-7-9-7-9-7h9-7h9--------9-|
|---------------------------------------------------------|
|---------------------------------------------------------|

|------------------------------------------------------|
|-7h9-9-9-7-9------------------------------------------| 
|--------------7-9-7-9---9\5-5-5-7-5-7-------8p7--5----|
|--------------------------------------5h7----------7--|

(verse)x4

[ Tab from: http://www.guitartabs.cc/tabs/j/john_butler_trio/zebra_btab.html ]
chorus (2)
|------------------------------------------------------|
|-7h9-9-9-7-9------------------------------------------| x2
|--------------7-9-7-9---9\5-5-5-7-5-7-------8p7--5----|
|--------------------------------------5h7----------7--|

|--------------------------------------------------------|
|-7h9-9-9/12-11-9----------------------------------------| 
|-----------------7h9-7h9--9\5-5-5--7-5-7-------8p7--5---|
|-----------------------------------------5h7----------7-|

|------------------------------------------------------|
|-7h9-9-9-7-9------------------------------------------| 
|--------------7-9-7-9---9\5-5-5-7-5-7-------8p7--5----|
|--------------------------------------5h7----------7--|


during guitar solo
|------------------------------------------------------|
|-7h9-9-9-7-9------------------------------------------| 
|--------------7-9-7-9---9\5-5-5-7-5-7-------8p7--5----| x8
|--------------------------------------5h7----------7--|


bridge
|-----------------------------------------------------|
|-----------------------------------------------------|
|------------5h7p5-----------------8p7-5--------------|
|-0-0----5h7-------7----0-0----5h7-------7------------|

|-----------------------------------------------------|
|----------------4h7----------------------------------|
|------------5h7-------------------8p7-5--------------|
|-0-0----5h7------------0-0----5h7-------7------------|


then play: (verse) x4

then: (chorus No.2)

at the end of the chorus play...
|-------------|
|-------------|
|-----8p7-5---|
|-5h7-------7-|
Comments