John Butler Trio - Somethings Gotta Give Chords & Tabs

 

Somethings Gotta Give Chords & Tabs

John Butler Trio Chords & Tabs

Version: 1 Type: Tab 0 ratings
1 star 2 stars 3 stars 4 stars 5 stars
comments

Somethings Gotta Give Tab

   
hey guys & ladies. I am with Ali, Jess & Simon & we are soo cool. Hope you like my new
tab! It's mega freaky! HAve a great day.

Artist-John Butler Trio
Song-Somethings gotta give
Tuning-Standard or Dropped D
[ Tab from: http://www.guitartabs.cc/tabs/j/john_butler_trio/somethings_gotta_give_tab.html ]
(standard)
e-------------------------------------------------------|
b-------------------------------------------------------|
g----------9p7------------------------------------------|
d-------9-9---9p7---------------------------------------|
a-x-7-7-7-7-------5-5-5/7-7-----------------------------|
E-----------------3-3-3/5-5-----------------------------|

(Dropped D)

e-------------------------------------------------------|
b-------------------------------------------------------|
g----------9p7------------------------------------------|
d-------9-9---9p7---------------------------------------|
a-x-7-7-7-7-------5-5-5/7-7-----------------------------|
D-----------------5-5-5/7-7-----------------------------|

it's not the best but it'll do for now untill i figure out more of it cya!
Comments