John Butler Trio - Peaches And Cream Chords & Tabs

 

Peaches And Cream Chords & Tabs

John Butler Trio Chords & Tabs

Version: 2 Type: Tab

Peaches And Cream Tab

   
-------------------------------------------------------------------------------
			 Peaches & Cream - The John Butler Trio
-------------------------------------------------------------------------------
Tabbed by:pistal22
Email:pistal@hotmail.co.uk

Tuning:Tunned down
D# G# C# F# A# D#
(E A D G B E)

Very simple song no idea where the other jokers got the idea this is played standard! 
strumming variations, the odd picked note or pull off listen for these they are very clear 
just follow the chord formations.

  Intro/Verse: Repeat this x11

e|---0-----3-----0-----0----------------------------------------------------|
B|---0-----3-----3-----0----------------------------------------------------|
G|---0-----0-----0-----2----------------------------------------------------|
D|---2-----0-----2-----2----------------------------------------------------|
A|---2-----2-----3-----0----------------------------------------------------|
E|---0-----3-----x-----x----------------------------------------------------|

  Bridge: Repeat this x4         -    After the 4th time play just this
[ Tab from: http://www.guitartabs.cc/tabs/j/john_butler_trio/peaches_and_cream_tab_ver_2.html ]
e|---3-----------0-----2---------|---------0---------------------------------|
B|---3-----------3-----3---------|---------0---------------------------------|
G|---0-----------0-----2---------|---------2---------------------------------|
D|---0-----------2-----0---------|---------2---------------------------------|
A|---2-----------3-----x---------|---------0---------------------------------|
E|---3-----------x-----x---------|---------x---------------------------------|

 1st Chorus: Repeat this x4         -    After the 4th time it goes like
                                           this x1

e|---0-----0-----0-----3---------|---0-----3-----0-----0---------------------|
B|---3-----0-----0-----3---------|---3-----3-----3-----0---------------------|
G|---0-----2-----0-----0---------|---0-----0-----0-----2---------------------|
D|---2-----2-----2-----0---------|---2-----0-----2-----2---------------------|
A|---3-----0-----2-----2---------|---3-----2-----3-----0---------------------|
E|---x-----x-----0-----3---------|---x-----3-----x-----x---------------------|

  Then back to verse, then bridge, then chorus again only this time at the end of chorus 
play the extra C G C Em just play the verse chords all the way to the end of the 
Beautiful song anyway, hope u enjoy!