Johann Sebastian Bach - Minuet In D Minor Chords & Tabs

 

Minuet In D Minor Chords & Tabs

Johann Sebastian Bach Chords & Tabs

Version: 1 Type: Bass Tab 0 ratings
1 star 2 stars 3 stars 4 stars 5 stars
comments

Minuet In D Minor Bass Tab

|------|-----0|-2----|--------|
|-0---2|-3----|------|-0-----0|
|------|------|-----0|----0---|
|------|------|------|--------|

|--------|------|--------|----------|
|-0------|-----2|-3------|---3-2-0--|
|----3--1|-0----|----0--3|---------4|
|--------|------|--------|-1--------|

|------|-----0|-2----|--------|
|-0---2|-3----|------|-0-----0|
|------|------|-----0|----0---|
|------|------|------|--------|

|--------|------|--------|--------|
|-0------|-----2|-3------|-3------|
|----3--1|-0----|----0--3|----3---|
|--------|------|--------|-------1|
[ Tab from: http://www.guitartabs.cc/tabs/j/johann_sebastian_bach/minuet_in_d_minor_btab.html ]
|----2--3|-5--0----|--------|------------|
|-3------|------2--|-0------|-------0-2-3|
|--------|--------3|----3--1|-0-2-4------|
|--------|---------|--------|------------|

|-0------|----2--6|-7--0--2|-----------|
|----2---|--------|--------|-0--0---0-2|
|-------4|-0------|--------|------0----|
|--------|--------|--------|-----------|

|----2--3|-5--0----|--------|------------|
|-3------|------2--|-0------|-------0-2-3|
|--------|--------3|----3--1|-0-2-4------|
|--------|---------|--------|------------|

|-0------|----2--6|-7--0--2|------|
|----2---|--------|--------|-0---0|
|-------4|-0------|--------|---0--|
|--------|--------|--------|------|


You Should Listen To It So You Learn How Long And How Fast The Beats Are.
Comments