Johann Pachelbell - Pachelbels Canon Chords & Tabs

 

Pachelbels Canon Chords & Tabs

Johann Pachelbell Chords & Tabs

Version: 2 Type: Tab

Pachelbels Canon Tab

   
this is a nice song that can be played as a round.
The 2nd player can begin at the *.

Play slow and stately
  C  G   Am Em  F  C   F  G7
e|------|------|------|------|
B|1-----|------|------|------|
G|---0--|2-----|------|---0--|
D|------|---2--|3-----|3-----|
A|------|------|---3--|------|
E|------|------|------|------|

*
 C  G   Am Em  F  C   F  G7
|0-----|------|------|------|
|1--3--|1--0--|------|---0--|
|---0--|2--1--|2--0--|2--0--|
|------|---2--|3--2--|3-----|
|------|------|---3--|------|
|------|------|------|------|
[ Tab from: http://www.guitartabs.cc/tabs/j/johann_pachelbell/pachelbels_canon_tab_ver_2.html ]
 C   G    Am  Em   F   C    F   G7
|0-------|--------|--------|--------|
|1---3---|1---0---|--------|----0---|
|--0---0-|2---0---|2---0---|2---0---|
|--------|--2---2-|3---2---|3-----3-|
|--------|--------|--3---3-|--3-----|
|--------|--------|--------|--------|

 C   G    Am  Em   F   C    F   G7   C
|0-------|--------|--------|--------|-----|
|--1-3---|1---0---|--------|----0---|1----|
|-0-0--0-|--2---0-|2---0---|2-----0-|-----|
|------0-|-2-2--2-|--3---2-|--3---3-|2----|
|--------|--------|-3-3--3-|-3-3----|3----|
|--------|--------|--------|--------|-----|

Note:  The number of hyphen between notes indicates the time value of the note

Ex. G|3-
    D|-2 = EIGHTH NOTE

    G|3--
    D|--2 = QUATER NOTE 

    G|3--- = HALF NOTE
    D|---2

    G|3---- = WHOLE NOTE
    D|-----


GOOD LUCK


HAPPY PLAYING!