Johann Pachelbell - Canon In D Chords & Tabs

 

Canon In D Chords & Tabs

Johann Pachelbell Chords & Tabs

Version: 2 Type: Tab 0 ratings
1 star 2 stars 3 stars 4 stars 5 stars
comments

Canon In D Tab

ONCE AGAIN THIS IS RENE VALDIVIEZO IM 14 YEARS OLD AND THIS SONGS PRETTY COOL
AND I CANT BELIEVE PEOPLE WOULDNT SPEND TIME TO TAB IT TOOK ME 2HOURS AND 38
MINUTES. BUT YOU WONT FIND ANY OTHER PLACE ON THE NET! WELL THERE IT IS! (ENJOY)
BY THE WAY DID I MENTION I FIGURED THIS BY MYSELF?

Tuning:DADGBe


INTRO PT.1: PLAY 1X
e|--------2--------------------------------------------------------------------|
B|------3---------2---------3---------2------0----------3---------3---------2--|
G|----2---------2---------4---------2-------0---------2---------4---------2----|
D|--0---------2---------4---------4--------0--------4---------5---------2------|
A|----------0---------2----------------------------------------------0---------|
D|-----------------------------4----------5-------0---------5------------------|

INTRO PT. 2: PLAY 2X
e|--2---------0----------------------------------------------------------------|
B|-----3---3-------2------3-----------2-----------0-----0-----------------3----|
G|-------2-----------2---------4-----------4----------0----0----0-------4------|
D|--0------------2-2---------4---4-------4---4-------0--0-----0-------5--------|
A|------------0-----------2-----------4----------------------------------------|
D|------------------------------------------------5-----------------5----------|

e|--------------------------------------------------2---5--7-------------------|
B|--------2---3-2-3----------------------3-2-0-2--------------8-7-5-8-7-5-3-2-0|
G|------2-------------------2------------------------------0-------------------|
D|----2---------------0--------0--4--0------------------0----------------------|
A|--0-------------------4----------------------0----0--------------------------|
D|------------0--------------------------0-------------------------------------|
[ Tab from: http://www.guitartabs.cc/tabs/j/johann_pachelbell/canon_in_d_tab_ver_2.html ]
e|-----------------------------------------------------------------------------|
B|-----------------------------------0------------------0-2-3-2-0--------------|
G|-2-0--------------------2---2-0------2-0-2-0--------------------2-0----4--4-2|
D|------4-2-5-4-2-0-2-4-5---2-----4-------------4-2-0-----------------4-2--7---l
A|------------------------0----------------0----------2------------------------|
D|-----------------------------------------------------------------------------|

e|-5-2-3-5-2-3-5---------------------------------------------------------------|
B|----------------0-2-3-5-7-8-10-7-3-5-7---0-2-3-2-0-2------------3-2-0--------|
G|---------------------------------------2-------------0-2-4-2--0------2-0-2---|
D|-0-------0-------------------------------------------------------------------|
A|-----------------------------------------------------------------------------|
D|-----------------------------------------------------------------------------|

e|---------------------------------------------2-----2--0--------------------|
B|---------------0---0-2-3---0-2-3-5-7-8-10--------3--------2-----3----------|
G|-----------------2-------2---------------------2------------2------4-------|
D|-0-2-4-5-7-5-0-------------------------------0----------2-2-------4--4-----|
A|------------------------------------------------------0---------2----------|
D|---------------------------------------------------------------------------|

e|--------------------------------------------------2------------------------|
B|-2---------0----0-----------3----3--------2----2--3------------------------|
G|-----4--------0---0-0------2----4----0--2----2----2------------------------|
D|---4---4-----0--0--0------4----5--------2----2----0------------------------|
A|-4----------------------------------------0----0---------------------------|
D|-----------5------------0-----5--------------------------------------------|
Comments