Joey Ramone - What A Wonderfull World Chords & Tabs

 

What A Wonderfull World Chords & Tabs

Joey Ramone Chords & Tabs

Version: 1 Type: Tab 1 rating
1 star 2 stars 3 stars 4 stars 5 stars
comments

What A Wonderfull World Tab

Title: what a wonderfull world
Artist: Joey Ramone
Tabbed by: pnk_rok_animal

a brilliant cover of the louis armstrong song... so fun to play, 
I hope this tab helps:

x = mute
h = hammer on
p = pull off
/ = slide out


INTRO
E|----------------------|    (X 8)  
B|----------------------|
G|----------------------|
D|-------3-3------------|
A|---------------3-3----|
E|---1-1-----1-1--------|



VERSE 
E|------------------------------------------------------|
B|------------------------------------------------------|
G|----------------------------3-3-3-3-3-3---------------|
D|--3-3-3-3-3-3--7-7-7-7-7-7--3-3-3-3-3-3--7-7-7-7-7-7--|
A|--3-3-3-3-3-3--7-7-7-7-7-7--1-1-1-1-1-1--7-7-7-7-7-7--|
E|--1-1-1-1-1-1--5-5-5-5-5-5--x-x-x-x-x-x--5-5-5-5-5-5—-|

E|------------------------------------------------------------|
B|------------------------------------------------------------|
G|------------------------------------------------------------|
D|--5-5-5-5-5-5--3-3-3-3-3-3--x-x-x-x-x-x---x--x--x--x--x—x---|
A|--5-5-5-5-5-5--3-3-3-3-3-3--7-7-7-7-7-7--12-12-12-12-12-12--|
E|--3-3-3-3-3-3--1-1-1-1-1-1--5-5-5-5-5-5--10-10-10-10-10-10--|
    
 (-2nd Guitar?)
E|--4---(-----------)---------------3--------|------------------|
B|--6---(-----------)---------------5--------|------------------|
G|--6---(----1------)----3----------5--------|-9/10-10-10-10-10-|  
D|--6---(1h3---3p1--)----3----------5--------|-9/10-10-10-10-10—|  
A|--4---(----------4)----1----------3--------|-7/8--8--8—-8—8-—-|
E|------(-----------)------------------------|------------------|



INTERLUDE  
E|-------x-------------x--------------1--x--|
B|-------x-------------1--------------2--x--|
G|-------x-------------2--------------3--x--|
D|-------10------------3--------------3--3—-|
A|-------10------------3---------—----1--3--|
E|-------8-------------1--------------x--1--|
[ Tab from: http://www.guitartabs.cc/tabs/j/joey_ramone/what_a_wonderfull_world_tab.html ]
E|-------3------------x-x--------------1-x--|
B|-------5------------3-x--------------3-1--|
G|-------x------------5-x--------------3-x--|
D|-------5------------5-3--------------3-3--|
A|-------3------------3-3---------—----1-3--|
E|-------x------------x-1--------------x-1--|

	(x3)
E|-------x-------x-----|-------------------|--------|
B|-------6-------x-----|-------------------|--------|
G|-------7-------x-----|---x---x-----x---x-|-x-3-x--|
D|-------7-------7-----|---8---7-----5---x-|-5-5-5--|
A|-------5-------7-----|---8---7----—5---5-|-5-5-5--|
E|-------x-------5-----|---6---5-----3---3-|-3-3-3--|




ENDING BIT
E|--4---------------3----------------------------------|
B|--6---------------5---------x--x--x------------------|
G|--6----3----------5---------10-10-10-8-8-88--7-7-77--|
D|--6----3----------5---------10—10-10-8-8-88--7-7-77--|
A|--4—---1----------3---------8—-8--8--6-6-66--5-5-55--|
E|-------------------------------------x-x-xx--x-x-xx--|
												   
E|---X-------------------|-x--x---x-x-----x-x-xx--x-x-xx--x-x-xx-|
B|---X----------5--------|-10-x---x-10----8-x-x8--7-x-x7--7-x-x7-|
G|---4----------5--------|-10-10--1010----8-8-88--7-7-77--7-7-77-|   (x2)
D|---5----------5--------|-10—10--1010----8-8-88--7-7-77--7-7-77-|
A|---5----------3--------|-8—-8---8-8-----6-6-66--5-5-55--5-5-55-|
E|---3----------x--------|---------------------------------------|

E|---------------3------|-------------------------------------|-x-x-8-/----|
B|---------------5------|-------------------------------------|-x-x-10/----|
G|----3----------5------|--6-6-6-6-6-6---8-8-8-8-8-8-------10-|-x-x-10/----|
D|----3----------5------|--6-6-6-6-6-6---8-8-8-8-8—8-------10-|-x-x-10/----|
A|----1----------3------|--4-4-4-4-4-4---6-6-6-6-6-6-------8--|-x-x-8-/----|
E|----------------------|-------------------------------------|-x-x--------|




Song order:

Intro
Verse
Verse
Interlude
Verse
Ending bit

(I think thats it)

thank you...
Comments