Joel Turner And The Modern Day Poets - These Kids Chords & Tabs

 

These Kids Chords & Tabs

Joel Turner And The Modern Day Poets Chords & Tabs

Version: 3 Type: Tab 0 ratings
1 star 2 stars 3 stars 4 stars 5 stars
comments

These Kids Tab

Email: Dead_Sexy_Simon@hotmail.com

Tabbed by: Simon Whitehead

This version is on the album, they don't play it on the radio (well I haven't heard it 
It's a couple of notes longer, but sounds pretty cool. This is as close as I can get, and 
sounds pretty acurate.
[ Tab from: http://www.guitartabs.cc/tabs/j/joel_turner_and_the_modern_day_poets/these_kids_tab_ver_3.html ]
E|-----------------------------------------------------------------------------|
A|-------3-----3---------3-----3---------4-------0h1-0-------------3-----3-----|
D|-----0---------------0---0-----------0---5-0---------0---0-----0---0---------|
G|---4-------4-------4-------4-------3---------4---------4-----4-------4-------|
B|-3-------3-----3h5---------------3-------------------------3-------------3h5-|
E|-------------------------------0---------------------------------------------|

..continued
E|-------------2-----2-----0-----5---------------------------------------------|
A|-----3-----3---3-----3-----3-------------------------------------------------|
D|---0---0---------4-----4-----4-----------------------------------------------|
G|-4-------4-------------------------------------------------------------------|
B|-----------------------------------------------------------------------------|
E|-----------------------------------------------------------------------------|

Thats it!

Email me if you have comments or corrections :)

Simon
Comments