Joel Turner And The Modern Day Poets - These Kids Chords & Tabs

 

These Kids Chords & Tabs

Joel Turner And The Modern Day Poets Chords & Tabs

Version: 2 Type: Tab 0 ratings
1 star 2 stars 3 stars 4 stars 5 stars
comments

These Kids Tab

Artist: Joel Turner And The Modern Day Poets

Song: These kids

Tabed by: Jamick And Doof

[ Tab from: http://www.guitartabs.cc/tabs/j/joel_turner_and_the_modern_day_poets/these_kids_tab_ver_2.html ]
e|--------------------------------------------------------------2--2--0---5-|
B|-----3---------3---------1--0--0h1p0--------3---------3--------3--3--3----|
G|----0-0-0-----0-0-0-----0-0--0------0------0-0-0-----0-0-0------0--0--0---|
D|---4---4-----4---4-----2---2--2------2----4---4-----4---4-----------------|
A|--3-------3h5---------3---------------3--3-------3h5----------------------|
E|--------------------------------------------------------------------------|
								^^^^^^^^^^^^
i'm not sure but maybe instead of doing the bit of the intro that is 
marked with these ^^^^ do it like this

e|--------------|
B|-7--7--5--10--|
G|--7--7--7-----|
D|---5--5--5----|
A|--------------|
E|--------------|

We haven't quite got the verses yet but when we do we'll put it straight on here
And plz rate us because it is our first tab and we wanna if we're any good lol
thanx pplz

If you have anything u want 2 no about the tab just send jamick
an e-mail at jamick_69@hotmail.com
Comments