Joel Plaskett - Love This Town Chords & Tabs

 

Love This Town Chords & Tabs

Joel Plaskett Chords & Tabs

Version: 2 Type: Tab 0 ratings
1 star 2 stars 3 stars 4 stars 5 stars
comments

Love This Town Tab

   
Love this town - joel plaskett

Capo 2nd fret
INTRO:
e|-------------------------|-----------------------------------------------------|
B|-2-----------------2-----|-2--------------3-2----------------------------------|
G|---2-------2-2-2h4--4----|----2----------------4-2-4---------------------------|
D|-----2--4----------------|------2-4--4p2---------------------------------------|
A|-------------------------|-----------------------------------------------------|
E|-3-----------------------|-3---------------------------------------------------|
[ Tab from: http://www.guitartabs.cc/tabs/j/joel_plaskett/love_this_town_tab_ver_2.html ]
e|-------------------------------------|--------------------------------------------|
B|------2------------------------------|-3-2--------2-------------------------------|
G|-2h4---2----------------2-2h4p2------|------4-2-4---2-----------------------------|
D|---------2-4---2-2-2-4---------------|--------------------------------------------|
A|-------------------------------------|--------------------------------------------|
E|------3------------------------------|--------------------------------------------|

Note: G* is 5o4oo5

G	       G*	     G                 G*
Listen up kid It's not what you think
G                     G*             C		        	    D
Stayed out too late, had a little too much to drink
G				      G*			 C			G
Walked home across the bridge  When the Marquee shut down
		C		    D		G
There's a reason that I love this town
Comments