Joel Plaskett - Down At The Khyber Chords & Tabs

 

Down At The Khyber Chords & Tabs

Joel Plaskett Chords & Tabs

Version: 1 Type: Tab 0 ratings
1 star 2 stars 3 stars 4 stars 5 stars
comments

Down At The Khyber Tab

   
----------------------------------------------------------------------
			     Down At The Khyber - Joel Plaskett Emergency
-------------------------------------------------------------------------------
Tabbed by:
Email:

Tuning:Standard EADGBe

Riff One:Play 8 times as intro and 4 times under vocals
e|---------------------------------------------------------------------------|
B|---------------------------------------------------------------------------|
G|---------------------------------------------------------------------------|
D|---------------------------------------------------------------------------|
A|-----5-1-4p3p2--3b---------------------------------------------------------|
E|-----0-0-0------0----------------------------------------------------------|

I've Been Away, And I've Been Travelling, I've Been Lost , I F***ed Around

Riff Two:
e|-----------------------------------------1r--------------------------------|
B|-----------------------------------------1r--------------------------------|
G|------7-------10-----------5-----3-------2r--------------------------------|
D|------7-------10----------5-5---3-3----3-3r--------------------------------|
A|--/5--5----8--8----------3-----1------3--3r--------------------------------|
E|-------------------------------------1---1r--------------------------------|

Like A Heavy,_________________,Through Open Fields And Prairie Towns

Then You Play Riff One 4 times under :

I Got Sick, Then I Got Sicker, And I Spent Spent, A Month In Bed

Riff 3:
e|-----------------------------------------1r--------------------1-----------|
B|-----------------------------------------1r--------------------1-----------|
G|------7-------10-----------5-----3-------2r--------5----3------2-----------|
D|------7-------10----------5-5---3-3----3-3r-------5-5--3-3---3-3-----------|
A|--/5--5----8--8----------3-----1------3--3r------3----1-----3--3-----------|
E|-------------------------------------1---1r----------------1---1-----------|

   Until A Vision, Came To Me Quicker, I Saw Ghosts And I Saw red, I Saw Ghosts Then I Saw Red
[ Tab from: http://www.guitartabs.cc/tabs/j/joel_plaskett/down_at_the_khyber_tab.html ]
Riff 4:
e|----------------------------3r-----1r---------------------------------------|
B|----------------------------3r-----1r---------------------------------------|
G|-----5-----7----9----2------3r-----2r---------------------------------------|
D|-----5-----7----9----2------5r-----3r---------------------------------------|
A|-----3-----5----7----0------5r-----3r---------------------------------------|
E|----------------------------3r-----1r---------------------------------------|

Am I Still Alive? Where Did I Collapse? In Edmonton Alberta, Home In Halifax
Float Me Down The River, To The Mosquidobit Harbour, Cause I'm Gettin Nowhere

______________________________________________________________________________

Then you repeat the entire thing again except the intro  under these lyrics:

I Met My Love Down At The Khyber, And We Drifted Through The Crowd, And When I Finally 
Beside Her, You Can hear My Heart Out Loud

And When I'm Gone, She'll Never Leave me, Oh No She'll Never be Untrue, And Buddy If You 
Believe Me You Don't Believe The Sky Is blue.

Am I Still Alive? Where Did I Collapse? In Edmonton Alberta, At Home In Halifax. Float 
Down The River, To The Mosquidobit Harbour, Cause I'm Getting Nowhere

Then There Is A Drum Break and another verse of bass

And If It Feels, Just Like A Toss Up, perhaps It IS, Perhaps it Ain't,
Do you Remember   e|---------------------|
                  B|---------------------|
                  G|--7------------------|
                  D|--7------------------|
                  A|--5------------------|
                  E|---------------------|

At The Sock Hop  e|----------------------|
                 B|----------------------|
                 G|---10-----------------|
                 D|---10-----------------|
                 A|---8------------------|
                 E|----------------------|


e|------------------1r--------|
B|------------------1r--------|Repeat this 4 times while singing:
G|----5----3--------2r--------|
D|---5-5--3-3----3--3r--------|    Did I Dance Or Did I Fade?
A|--3----1------3---3r--------|
E|-------------1----1r--------|

Guitar solo to come

| /  slide up
| \  slide down
| h  hammer-on
| p  pull-off
| ~  vibrato
| +  harmonic
| x  Mute note
| r  Let Ring
===============================================================================
Comments