Joel Plaskett - Before You Leave Chords & Tabs

 

Before You Leave Chords & Tabs

Joel Plaskett Chords & Tabs

Version: 1 Type: Tab

Before You Leave Tab

   
This Is a song by thrush Hermit, Joels old band, but i figured no one would tab or look 
them so, here they are in Joels section.


INTRO:                                   4th time, add this on
e|---12p0-12p0--9p0--12p0--------------|--------------------------------------|
B|------------------------12p0-7/9-----|-/10/9--------------------------------|
G|-------------------------------------|--------------------------------------|
D|----------------------------------x4-|--------------------------------------|
A|-------------------------------------|--------------------------------------|
E|-------------------------------------|--------------------------------------|


VERSE:
C#m                   B                     E
  The light above the street, I can see you perfectly
                    B                                   A
Who needs the moon above, to see that you don't need my love, you dont need my
E
love
C#m                   B                       E
  If you find someone else, Please keep it to yourself
                 B                         A                   E
And never let me know that you ever let me go, You ever let me go
[ Tab from: http://www.guitartabs.cc/tabs/j/joel_plaskett/before_you_leave_tab.html ]
CHORUS
        B                      A             E
There's fire in the trees, and rain upon the roof x1
   B                               A                 E
It looks like we won't freeze just close the chimney flue x1
            B                    A    E
Do what you gotta do, before you leave    x4

INTRO RIFF TWICE

VERSE:
C#m                       B                           E
   The band struck up and played, I know our love not fade
              B                       A                   E
Away and into dust, But if it must it must, If it must it must
C#m              B                       E
  And we all die alone, At war or on the phone
                    B                                 A
Or both at the same time, Sending volleys through the line, volleys through
    E
the line

CHORUS

INTERLUDE:
e|---12p0-12p0-9p0-12p0-----------------|-------------------------------------|
B|----------------------12p0-7h9p0------|-------------------------------------|
G|--------------------------------------|-------------------------------------|
D|-----------------------------------x4-|-------------------------------------|
A|--------------------------------------|-------------------------------------|
E|--------------------------------------|-------------------------------------|

CHORUS/with guitar solo type thing over vocals

END ON E

Then it goes into some weird thing to end the spectacular album.
Rhythm guitar just goes from E to A