Joel Billy - Shes Always A Woman Chords & Tabs

 

Shes Always A Woman Chords & Tabs

Joel Billy Chords & Tabs

Version: 1 Type: Tab 0 ratings
1 star 2 stars 3 stars 4 stars 5 stars
comments

Shes Always A Woman Tab

   
#----------------------------------PLEASE NOTE---------------------------------#
#This file is the author's own work and represents their interpretation of the #
#song. You may only use this file for private study, scholarship, or research. #
#------------------------------------------------------------------------------#


Date: 11.04.2004
Tabbed by Peter Tuyp (peter.tuyp@wxs.nl)

Subject:
Billy Joel - She's always a woman


Capo on first fret

Intro:
  D/f#        G           D/f#        A       
e|-2-----------3-----------2-----------0-----0-----------------------|
B|-3-----------3-----------3-----------2-----2-----------------------|
G|-2-----------4-----------2-----------2-----2-----------------------|
D|-4-----------5-----------4-----------2-----------------------------|
A|-------------------------------------------0-----------------------|
E|-------------------------------------------------------------------|

  D/f#        G           D/f#
e|-2-----------3-----------2-----------------------------------------|
B|-3-----------3-----------3-----------------------------------------|
G|-2-----------4-----------2-----------------------------------------|
D|-4-----------5-----------4-----------------------------------------|
A|-------------------------------------------------------------------|
E|-------------------------------------------------------------------|

Verse 1:
         A           D           A           D
e|--------0-----------2-----------0-----------2----------------------|
B|--------2-----------3-----------2-----------3----------------------|
G|--------2-----------2-----------2-----------2----------------------|
D|--------------------0-----------------------0----------------------|
A|--------0-----------------------0----------------------------------|
E|-------------------------------------------------------------------|
 
         D   e   f#  G           Bm          Em
e|--------------------3-----------2-----------0----------------------|
B|--------------------0-----------3-----------0----------------------|
G|--------------------0-----------4-----------0----------------------|
D|--------0---2---4--------------------------------------------------|
A|--------------------------------2----------------------------------|
E|--------------------3-----------------------0----------------------|
 

         A           D           A           F
e|--------0-----------2-----------0-----------1----------------------|
B|--------2-----------3-----------2-----------1----------------------|
G|--------2-----------2-----------2-----------2----------------------|
D|--------------------0----------------------------------------------|
A|--------0-----------------------0----------------------------------|
E|--------------------------------------------1----------------------|
 

         Bm          Bm/a        G           A
e|--------2-----------2-----------3-----------0----------------------|
B|--------3-----------3-----------0-----------2----------------------|
G|--------4-----------4-----------0-----------2----------------------|
D|--------------------------------0-----------2----------------------|
A|--------2-----------0-----------2-----------0----------------------|
E|--------------------------------3----------------------------------|
     

verse 2:
  D           G           D
e|-------2-----------3-----------2-----------------------------------|
B|-----3-----3-----3-----3-----3-----3-------------------------------|
G|---2-----2-----4-----4-----2-----2---------------------------------|
D|-0-----------5-----------0-----------------------------------------|
A|-------------------------------------------------------------------|
E|-------------------------------------------------------------------|
                                  

  A           D           A           D
e|---0-----0-----2-----2-----0-----0-----2-----2---------------------|
B|-----2-----2-----3-----3-----2-----2-----3-----3-------------------|
G|-------2-----------2-----------2-----------2-----------------------|
D|-------------0-----------------------0-----------------------------|
A|-0-----------------------0-----------------------------------------|
E|-------------------------------------------------------------------|
  

 D/f# D/e D       D/e D/f# G          Bm          Em  
e|---2---2---------------2---3-----3-----2-----2-----0-----0---------|
B|-----------3---3---3---------0-----0-----3-----3-----0-----0-------|
G|-------------------------------0-----------4-----------0-----0-----|
D|-4---2---0---0---2---4---------------------------------------------|
A|-------------------------------------2-----------------------------|
E|-------------------------3-----------------------0-----------------|
          

  D/f#        A           D           A           G F
e|---2-----2-----0-----0-----2-----2-----0-----0-------2-----2-------|
B|-----3-----3-----2-----2-----3-----3-----2-----2-------2-----2-----|
G|-------2-----------2-----------2-----------2-------------3---------|
D|-4-----------------------0-----------------------------------------|
A|-------------0-----------------------0-----------------------------|
E|-------------------------------------------------3-2---------------|
          

  F   c# 
    a#  Bm          Bm/a        G           A           D   
e|---------2-----2-----2-----2-----3-----3-----0-----0-----2-----2---|
B|-----------3-----3-----3-----3-----0-----0-----2-----2-----3-----3-|
G|-------------4-----------4-----------0-----------2-----------2-----|
D|-------------------------------------------------------0-----------|
A|---1-4-2-----------0-----------------------0-----------------------|
E|-2-----------------------------3-----------------------------------|
    

Chorus:
  Dsus4       D           D/c# 
e|---3-----3-----2-----2-----2-----2---------------------------------|
B|-----3-----3-----3-----3-----3-----3-------------------------------|
G|-------2-----------2-----------2-----------------------------------|
D|-0-----------0-----------------------------------------------------|
A|-------------------------4-----------------------------------------|
E|-------------------------------------------------------------------|

  Bm          Bm/a        E/g#        e
e|---2-----2-----2-----2-----4-----4-----4-----4---------------------|
B|-----3-----3-----3-----3-----5-----5-----5-----5-------------------|
G|-------4-----------4-----------4-----------4-----------------------|
D|-------------------------------------------------------------------|
A|-2-----------0-----------------------7-----------------------------|
E|-------------------------4-----------------------------------------|
  Oh,                       she takes care of her-

  A           A/g#        A/f#        D
e|---0-----0-----0-----0-----0-----0-----2-----2---------------------|
B|-----2-----2-----2-----2-----2-----2-----3-----3-------------------|
G|-------2-----------2-----------2-----------2-----------------------|
D|-------------------------------------0-----------------------------|
A|-0-----------------------------------------------------------------|
E|-------------4-----------2-----------------------------------------|
  self                        She can wait if she 
  G           G/f#        Em7         A
e|---3-----3-----3-----3-----0-----0-----0-----0---------------------|
B|-----0-----0-----0-----0-----0-----0-----2-----2-------------------|
G|-------0-----------0-----------0-----------2-----------------------|
D|-------------------------------------------------------------------|
A|-------------------------------------0-----------------------------|
E|-3-----------2-----------0-----------------------------------------|
  wants                       She's ahead of her

  D           G           D/f#        A
e|---2-----2-----3-----3-----2-----2-----0-----0---------------------|
B|-----3-----3-----3-----3-----3-----3-----2-----2-------------------|
G|-------2-----------4-----------2-----------2-----------------------|
D|-0-----------5-----------4-----------------------------------------|
A|-------------------------------------0-----------------------------|
E|-------------------------------------------------------------------|
  time

  Dm          Dm/c        Dm/b        G
e|---1-----1-----1-----1-----1-----1-----3-----3---------------------|
B|-----3-----3-----3-----3-----3-----3-----0-----0-------------------|
G|-------2-----------2-----------0-----------0-----------------------|
D|-0-----------------------------------------------------------------|
A|-------------3-----------2-----------------------------------------|
E|-------------------------------------3-----------------------------|
  Oh,                         and she never gives

  C           C/b         Fmaj7/a     F
e|---0-----0-----0-----0-----0-----0-----1-----1---------------------|
B|-----1-----1-----1-----1-----1-----1-----1-----1-------------------|
G|-------0-----------0-----------2-----------2-----------------------|
D|-------------------------------------------------------------------|
A|-3-----------2-----------0-----------------------------------------|
E|-------------------------------------1-----------------------------|
  out                         and she never gives

  Bes         Bes/A       E/g#        e
e|---1-----1-----1-----1-----4-----4-----4-----4---------------------|
B|-----3-----3-----3-----3-----5-----5-----5-----5-------------------|
G|-------3-----------3-----------4-----------4-----------------------|
D|-------------------------------------------------------------------|
A|-1-----------0-----------------------7-----------------------------|
E|-------------------------4-----------------------------------------|
  in                          She just changes her
 
  A           A6
e|---0-----0-----0-----0---------------------------------------------|
B|-----2-----2-----2-----2-------------------------------------------|
G|-------2-----------------------------------------------------------|
D|-------------4-----4-----------------------------------------------|
A|-0-----------------------------------------------------------------|
E|-------------------------------------------------------------------|
  mind
[ Tab from: http://www.guitartabs.cc/tabs/j/joel_billy/shes_always_a_woman_tab.html ]
Verse 3:
  A7          A6          D           A           D
e|---0-----0-----0-----0-----2-----2-----0-----0-----2-----2---------|
B|-----2-----2-----2-----2-----3-----3-----2-----2-----3-----3-------|
G|-0-----0-----------------------2-----------2-----------2-----------|
D|-------------4-----4-----0-----------------------0-----------------|
A|-------------------------------------0-----------------------------|
E|-------------------------------------------------------------------|
       

 D/f# D/e D       D/e D/f# G          Bm          Em  
e|---2---2---------------2---3-----3-----2-----2-----0-----0---------|
B|-----------3---3---3---------0-----0-----3-----3-----0-----0-------|
G|-------------------------------0-----------4-----------0-----0-----|
D|-4---2---0---0---2---4---------------------------------------------|
A|-------------------------------------2-----------------------------|
E|-------------------------3-----------------------0-----------------|
         

  D/f#        A           D           A           G F
e|---2-----2-----0-----0-----2-----2-----0-----0-------2-----2-------|
B|-----3-----3-----2-----2-----3-----3-----2-----2-------2-----2-----|
G|-------2-----------2-----------2-----------2-------------3---------|
D|-4-----------------------0-----------------------------------------|
A|-------------0-----------------------0-----------------------------|
E|-------------------------------------------------3-2---------------|
         

  F   c# 
    a#  Bm          Bm/a        G           A           D   
e|---------2-----2-----2-----2-----3-----3-----0-----0-----2-----2---|
B|-----------3-----3-----3-----3-----0-----0-----2-----2-----3-----3-|
G|-------------4-----------4-----------0-----------2-----------2-----|
D|-------------------------------------------------------0-----------|
A|---1-4-2-----------0-----------------------0-----------------------|
E|-2-----------------------------3-----------------------------------|
      

  Dsus4       D           A           D           A           F
e|---3-----3-----2-----2-----0-----0-----2-----2-----0-----0-----2-----2---|
B|-----3-----3-----3-----3-----2-----2-----3-----3-----2-----2-----2-----2-|
G|-------2-----------2-----------2-----------2-----------2-----------3-----|
D|-0-----------0-----------------------0-----------------------------------|
A|-------------------------0-----------------------0-----------------------|
E|-------------------------------------------------------------2-----------|
                       Mm, m          Mm,         Mm          Mm,
 
  F/a#        Bm          Bm/a        G           A           D   
e|---2-----2-----2-----2-----2-----2-----3-----3-----0-----0-----2-----2---|
B|-----2-----2-----3-----3-----3-----3-----0-----0-----2-----2-----3-----3-|
G|-------3-----------4-----------4-----------0-----------2-----------2-----|
D|-------------------------------------------------------------0-----------|
A|-1-----------2-----------0-----------------------0-----------------------|
E|-------------------------------------3-----------------------------------|
          Mm  Mm          Mm          Mm          Mm          Mm     

Chorus:
  Dsus4       D           D/c# 

e|---3-----3-----2-----2-----2-----2---------------------------------|
B|-----3-----3-----3-----3-----3-----3-------------------------------|
G|-------2-----------2-----------2-----------------------------------|
D|-0-----------0-----------------------------------------------------|
A|-------------------------4-----------------------------------------|
E|-------------------------------------------------------------------|

  Bm          Bm/a        E/g#        e
e|---2-----2-----2-----2-----4-----4-----4-----4---------------------|
B|-----3-----3-----3-----3-----5-----5-----5-----5-------------------|
G|-------4-----------4-----------4-----------4-----------------------|
D|-------------------------------------------------------------------|
A|-2-----------0-----------------------7-----------------------------|
E|-------------------------4-----------------------------------------|
  Oh,                      

  A           A/g#        A/f#        D
e|---0-----0-----0-----0-----0-----0-----2-----2---------------------|
B|-----2-----2-----2-----2-----2-----2-----3-----3-------------------|
G|-------2-----------2-----------2-----------2-----------------------|
D|-------------------------------------0-----------------------------|
A|-0-----------------------------------------------------------------|
E|-------------4-----------2-----------------------------------------|
 
  G           G/f#        Em7         A
e|---3-----3-----3-----3-----0-----0-----0-----0---------------------|
B|-----0-----0-----0-----0-----0-----0-----2-----2-------------------|
G|-------0-----------0-----------0-----------2-----------------------|
D|-------------------------------------------------------------------|
A|-------------------------------------0-----------------------------|
E|-3-----------2-----------0-----------------------------------------|
  

  D           G           D/f#        A
e|---2-----2-----3-----3-----2-----2-----0-----0---------------------|
B|-----3-----3-----3-----3-----3-----3-----2-----2-------------------|
G|-------2-----------4-----------2-----------2-----------------------|
D|-0-----------5-----------4-----------------------------------------|
A|-------------------------------------0-----------------------------|
E|-------------------------------------------------------------------|
  time

  Dm          Dm/c        Dm/b        G
e|---1-----1-----1-----1-----1-----1-----3-----3---------------------|
B|-----3-----3-----3-----3-----3-----3-----0-----0-------------------|
G|-------2-----------2-----------0-----------0-----------------------|
D|-0-----------------------------------------------------------------|
A|-------------3-----------2-----------------------------------------|
E|-------------------------------------3-----------------------------|
 

  C           C/b         Fmaj7/a     F
e|---0-----0-----0-----0-----0-----0-----1-----1---------------------|
B|-----1-----1-----1-----1-----1-----1-----1-----1-------------------|
G|-------0-----------0-----------2-----------2-----------------------|
D|-------------------------------------------------------------------|
A|-3-----------2-----------0-----------------------------------------|
E|-------------------------------------1-----------------------------|
  

  Bes         Bes/A       E/g#        e
e|---1-----1-----1-----1-----4-----4-----4-----4---------------------|
B|-----3-----3-----3-----3-----5-----5-----5-----5-------------------|
G|-------3-----------3-----------4-----------4-----------------------|
D|-------------------------------------------------------------------|
A|-1-----------0-----------------------7-----------------------------|
E|-------------------------4-----------------------------------------|
  


  A           A6
e|---0-----0-----0-----0---------------------------------------------|
B|-----2-----2-----2-----2-------------------------------------------|
G|-------2-----------------------------------------------------------|
D|-------------4-----4-----------------------------------------------|
A|-0-----------------------------------------------------------------|
E|-------------------------------------------------------------------|
  

Verse 4:
  A7          A6          D           A           D
e|---0-----0-----0-----0-----2-----2-----0-----0-----2-----2---------|
B|-----2-----2-----2-----2-----3-----3-----2-----2-----3-----3-------|
G|-0-----0-----------------------2-----------2-----------2-----------|
D|-------------4-----4-----0-----------------------0-----------------|
A|-------------------------------------0-----------------------------|
E|-------------------------------------------------------------------|
          

 D/f# D/e D       D/e D/f# G          Bm          Em  
e|---2---2---------------2---3-----3-----2-----2-----0-----0---------|
B|-----------3---3---3---------0-----0-----3-----3-----0-----0-------|
G|-------------------------------0-----------4-----------0-----0-----|
D|-4---2---0---0---2---4---------------------------------------------|
A|-------------------------------------2-----------------------------|
E|-------------------------3-----------------------0-----------------|
          

  D/f#        A           D           A           G F
e|---2-----2-----0-----0-----2-----2-----0-----0-------2-----2-------|
B|-----3-----3-----2-----2-----3-----3-----2-----2-------2-----2-----|
G|-------2-----------2-----------2-----------2-------------3---------|
D|-4-----------------------0-----------------------------------------|
A|-------------0-----------------------0-----------------------------|
E|-------------------------------------------------3-2---------------|
          

  F   c# 
    a#  Bm          Bm/a        G           G/f#        Em          A           D   
e|---------2-----2-----2-----2-----3-----3-----3-----3-----0-----0-----0-----0-----2-----2---|
B|-----------3-----3-----3-----3-----0-----0-----0-----0-----0-----0-----2-----2-----3-----3-|
G|-------------4-----------4-----------0-----------0-----------0-----------2-----------2-----|
D|-------------------------------------------------------------------------------0-----------|
A|---1-4-2-----------0-----------------------------------------------0-----------------------|
E|-2-----------------------------3-----------2-----------0-----------------------------------|
      

  Dsus4       D           A           D           A           F
e|---3-----3-----2-----2-----0-----0-----2-----2-----0-----0-----2-----2---|
B|-----3-----3-----3-----3-----2-----2-----3-----3-----2-----2-----2-----2-|
G|-------2-----------2-----------2-----------2-----------2-----------3-----|
D|-0-----------0-----------------------0-----------------------------------|
A|-------------------------0-----------------------0-----------------------|
E|-------------------------------------------------------------2-----------|
                       Mm, m          Mm,         Mm          Mm,
 
  F/a#        Bm          Bm/a        G            A           D           Dsus4       D    
e|---2-----2-------2-----------2------------3-----------0----------2-----------3-----------2-|
B|-----2-----2----3-----------3------------0-----------2----------3-----------3-----------3--|
G|-------3-------4-----------4------------0-----------2----------2-----------2-----------2---|
D|--------------4-----------4------------0-----------2----------0-----------0-----------0----|
A|-1-----------2-----------0------------2-----------0----------------------------------------|
E|-------------------------------------3-----------------------------------------------------|
          Mm  Mm          Mm          Mm          Mm          Mm   

  
Comments