Joel Billy - My Life Chords & Tabs

 

My Life Chords & Tabs

Joel Billy Chords & Tabs

Version: 1 Type: Bass Tab 0 ratings
1 star 2 stars 3 stars 4 stars 5 stars
comments

My Life Bass Tab

My life-Billy Joel

Intro
|---7---7---7---7---7---7--| a heap of times
|-----------------------------|
|-5---5---5---5---5---5----|
|-----------------------------|

Cool riff (there are many variations in the song)
|-------------------------------------------------------------------------------
|--------------------------------------------3-3------------------7------6--
|-5----5--5-55-4-3---3-3--3----------3-----------0-1---1-----------------
|--------------------------------3-2-1------------3------------5------4------

--------------------------5-5--------------------------------5-----6-------|
-----------------------5--------5-4-3----3----3-----------------------------|
-5----5--5-55-4-3--------------------3----3---3-1--1--3-----4-----------|
-------------------------------------------------------------------------------|

Verse 1
|----------------------------------------------------------
|----------------------------------------------------------
|--5---5-5---5-------------------------------------------
|----------------2---2-2---2-3---3-3---3-3---3-3---3-

-------------------------------7---7---7---7---7---7---7---7-
-----------------------------------------------------------------
-----------------------------5---5---5---5---5---5---5---5---
-5---5-5---5-5---5-5---5-------------------------------------

--------------------------------------------------------------------------------------|
--------------------------------------------------------------------------------------|
--5---5-5---5-----------------------------------------------------------------------|
----------------2---2-2---2-3---3-3---3-3---3-3---3-5---5-5---5-5---5-5---5-|

Verse 2
|-----------------------------------------------------------
|------------2-3-4---4-4---4-5---5-5---5-5---5-5---5-
|-5---5-5-------------------------------------------------
|-----------------------------------------------------------

-------------------------------7---7---7---7---7---7---7---7-
-----------------------------------------------------------------
-----------------------------5---5---5---5---5---5---5---5---
-5---5-5---5-5---5-5---5-------------------------------------
[ Tab from: http://www.guitartabs.cc/tabs/j/joel_billy/my_life_btab.html ]
------------------------------------------------------------------------------------------|
----------------------------------------------5---4--------------------------------------|
--5---5-5--------------------------------------------7---5------------------------------|
-----------0-1--2---2-2---2-3---3-3---3-------------------5---5-5---5-5---5-5---5-|

Bridge
|--------------6-6-----7-7------9-9--------------------------------------------------------
|----9-9-------------------------------------------------------------------------------------
|----------4--------5--------7------------------------------------------1-1-1-1-2-2-22--
|-7----------------------------------------0-2---3---3-33-2-2-22------------------------




------------------------------------|
------------------------------------|
---------------------0--------------|
-0-0-00-0-0-0-0-----------------|

Verse 3
|------------------------------------------------------------------------------------------
|----------------------------------------------5---4--------------------------------------
|--5---5-5---5---------------------------------------7---5------------------------------
|----------------2---2-2---2-3---3-3---3-------------------5---5-5---5-5---5-5---5-

----7---7---7---7---7---7---7---7-------------------------------------------------------------
---------------------------------------------------2-3-4---4-4---4-5---5-5---5-5---5-5---5-
-5---5---5---5---5---5---5---5------5---5-5-------------------------------------------------
--------------------------------------------------------------------------------------------------

-----------------------------|
-----------------------------|
-----------------------------|
-5---5-5---5-5---5-5---5-|

Verse 4
|-----------------------------------------------------------------------------------------
|----------------------------------------------------------4-------5-----5---4----------
|-5-----------------------------------5-----------5-------------------------------7-5--
|------2-----3-------------5------------------------------------------------------------

------------------------------|
------------------------------|
------------------------------|
-5---5-5---5-5---5-5---5--|

BENDA
wacka_smacka@hotmail.com

Comments