Joe Walsh - Help Me Through The Night Chords & Tabs

 

Help Me Through The Night Chords & Tabs

Joe Walsh Chords & Tabs

Version: 1 Type: Tab

Help Me Through The Night Tab

   
this is the hell freezes over version

e-0-0-0-0-0-0-0-0-0-0-0-0-0-0-0-0-0-0-0-0-|
b-0-0-0-0-0-0-0-0-0-0-0-0-0-0-0-0-0-0-0-0-|
g-4-4-4-4-4-4-4-4-4-4-4-4-4-4-4-4-4-4-4-4-|
d-5-5-5-5-5-5-5-5-5-5-5-5-5-5-5-5-5-5-5-5-|
a-0-0-0-0-0-0-0-0-0-0-0-0-0-0-0-0-0-0-0-0-|
e-----------------------------------------|

e-0-0-0-0-0-0---0-0-0-0-0-0---0-0-0-0-0-0---0-0-0-0-0-0-|
b-0-0-0-0-0-0---0-0-0-0-0-0---0-0-0-0-0-0---0-0-0-0-0-0-|
g-4-4-4-4-4-4---2-2-2-2-2-2---0-0-0-0-0-0---0-0-0-0-0-0-|
d-5-5-5-5-5-5---4-4-4-4-4-4---2-2-2-2-2-2---0-0-0-0-0-0-|
a-0-0-0-0-0-0---0-0-0-0-0-0---0-0-0-0-0-0---0-0-0-0-0-0-|
e-------------------------------------------------------|

e-0-0-0-0-0-0---0-0-0-0-0-0-0-0-0-0-0-0---0-0-0-0-0-0-|
b-1-1-1-1-1-1---1-1-1-1-1-1-1-1-1-1-1-1---0-0-0-0-0-0-|
g-2-2-2-2-2-2---0-0-0-0-0-0-0-0-0-0-0-0---0-0-0-0-0-0-|
d-3-3-3-3-3-3---2-2-2-2-2-2-2-2-2-2-2-2---0-0-0-0-0-0-|
a-0-0-0-0-0-0---0-0-0-0-0-0-0-0-0-0-0-0---0-0-0-0-0-0-|
e-----------------------------------------------------|
[ Tab from: http://www.guitartabs.cc/tabs/j/joe_walsh/help_me_through_the_night_tab.html ]
e-0--0--0--0--0--0--0--0--0--0--0--0---0--0--0--0--0--0--0--0--0--0--0--0--|
b-0--0--0--0--0--0--0--0--0--0--0--0---10-10-10-10-10-10-10-10-10-10-10-10-|
g-12-12-12-12-12-12-12-12-12-12-12-12--10-10-10-10-10-10-10-10-10-10-10-10-|
d-12-12-12-12-12-12-12-12-12-12-12-12---0--0--0--0--0--0--0--0--0--0--0--0-|
a--0--0--0--0--0--0--0--0--0--0--0--0---0--0--0--0--0--0--0--0--0--0--0--0-|
e--------------------------------------------------------------------------|

e-0-0-0-0-0-0-0-0-0-0-0-0---0-0-0-0-0-0-0-0-0-0-0-0-|
b-8-8-8-8-8-8-8-8-8-8-8-8---6-6-6-6-6-6-6-6-6-6-6-6-|
g-0-0-0-0-0-0-0-0-0-0-0-0---0-0-0-0-0-0-0-0-0-0-0-0-|
d-9-9-9-9-9-9-9-9-9-9-9-9---7-7-7-7-7-7-7-7-7-7-7-7-|
a-0-0-0-0-0-0-0-0-0-0-0-0---0-0-0-0-0-0-0-0-0-0-0-0-|
e---------------------------------------------------|
=====================================================================
=====================================================================
verse 1
e-0--0--0--0--0--0--0--0--0--0--0--0----0--0--0--0--0--0--0--0--0--0--0--0-|
b-12-12-12-12-12-12-12-12-12-12-12-12--10-10-10-10-10-10-10-10-10-10-10-10-|
g-12-12-12-12-12-12-12-12-12-12-12-12--10-10-10-10-10-10-10-10-10-10-10-10-|
d--0--0--0--0--0--0--0--0--0--0--0--0---0--0--0--0--0--0--0--0--0--0--0--0-|
a--0--0--0--0--0--0--0--0--0--0--0--0---0--0--0--0--0--0--0--0--0--0--0--0-|
e--------------------------------------------------------------------------|

e---0--0--0--0--0--0--0--0--0--0--0--0------5--0--7----7-7-5-|
b--12-12-12-12-12-12-12-12-12-12-12-12------5--0--7----7-7-5-|
g--12-12-12-12-12-12-12-12-12-12-12-12------5--0--7----7-7-5-|
d---0--0--0--0--0--0--0--0--0--0--0--0------5--0--7----7-7-5-|
a---0--0--0--0--0--0--0--0--0--0--0--0------5--0--7----7-7-5-|
e------------------------------------------------------------|

thats all i know right now ill tab the rest later tabbed by james pugrad and corbin ellis