Joe Walsh - Funk 49 Chords & Tabs

 

Funk 49 Chords & Tabs

Joe Walsh Chords & Tabs

Version: 3 Type: Tab 0 ratings
1 star 2 stars 3 stars 4 stars 5 stars
comments

Funk 49 Tab

                               Funk 49                   Tabbed by
                              Joe Walsh                        rnguitarist
            Joe Walshes Greatest Hits: Little Did He Know

The last one or two tabs for this song were of by minor little defects in the main riff 
other places too.

Tuning: Regular

Intro:

e|---------------------------------|
B|-------7-------------------------|
G|----7^----7^-7---9-8-7-7P5-------|
D|---------------------------7-----|
A|---------------------------------|
E|---------------------------------|

Main Riff:

e|----------------------------------------------------|
B|----5--XXXX--5--5--XXXX--7H8-7--XXXX--5--5--XXXXXX--|
G|----5H6XXXX--7--5H6XXXX--7---7--XXXX--7--5H6XXXXXX--|
D|----5--XXXX--7--5--XXXX--7H9-7--XXXX--7--5--XXXXXX--|
A|----------------------------------------------------|
E|----------------------------------------------------|

First Break:
[ Tab from: http://www.guitartabs.cc/tabs/j/joe_walsh/funk_49_tab_ver_3.html ]
e|--------------------------------------------------|
B|--------------------------------------------------|
G|-----------------------XX-----------------XXXXXX--|   Play Riff
D|-----7P5---------------XX--7P5------------XXXXXX--|     Twice
A|---------7P5--3------7-XX------7P5--3-----XXXXXX--|
E|----------------3H5--5-XX-------------3H5-XXXXXX--|

e|--------------------------------------------------|
B|--------------------------------------------------|
G|-----------------------XX-----------------XXXXXX--|
D|-----9P7---------------XX--9P7------------XXXXXX--|
A|---------9P7--5------9-XX------9P7--5-----XXXXXX--|
E|----------------5H7--7-XX-------------5H7-XXXXXX--|

e|--------------------------------------------|
B|-----------------------------------------9--|
G|-----------------------XX----------------8--|   Back to
D|-----9P7---------------XX--9P7-----------7--|  Main Riff
A|---------9P7--5------9-XX------9P7--5-------|
E|----------------5H7--7-XX-------------5H7---|

P- Pull off
H- Hammer on
X- Mute string(s)

Have fun playing this fairly easy song and also try jamming with freinds. Its in the key 
D for those who are going to try!  

My email is ransomenoteguitarist@yahoo.com, only email me about tabs!
Comments