Joe Strummer And The Mescaleros - Get Down Moses Chords & Tabs

 

Get Down Moses Chords & Tabs

Joe Strummer And The Mescaleros Chords & Tabs

Version: 1 Type: Tab 0 ratings
1 star 2 stars 3 stars 4 stars 5 stars
comments

Get Down Moses Tab

E--5------------------|5-------------------5-|--5-----------------|
B----8--5-----5-7-5-7-|--8--5----5-7-5-----5-|----8--5-----5-7-5-7|
G----------7--5-7-5-7-|--------7-5-7-5-------|----------7--5-7-5-7|
D---------------------|-----------------7----|--------------------|
A---------------------|----------------------|--------------------|
E---------------------|----------------------|--------------------|
[ Tab from: http://www.guitartabs.cc/tabs/j/joe_strummer_and_the_mescaleros/get_down_moses_tab.html ]
E------------------------|--55--88---55--88-|
B------------------------|--55--77---55--77-|
G--b7-b7-b7p5-------5----|------------------|
D-------------7-5-7----7-|------------------|
A------------------------|------------------|
E------------------------|------------------|
                                 /\  NOTE: SEE BELOW
                               
Now im almost positive this is right, not very many mescaleros tabbers out there,
figured id try it! The note is basically that those to chords might be the only
chords used through the rest of the song. Theres alot of keyboards and cool effects
and i cant tell where theres a guitar, so i only tabbed the intro. Hope this helps
you mescaleros and clash fans out there.
Remember Joe Strummer never dies.
Comments