Joe Satriani & Steve Vai - Formula 1 Chords & Tabs

 

Formula 1 Chords & Tabs

Joe Satriani & Steve Vai Chords & Tabs

Version: 1 Type: Tab 1 rating
1 star 2 stars 3 stars 4 stars 5 stars
comments

Formula 1 Tab

Song: Satriani & Vai - Formula 1
Tab: Johan Johanson (johan85@hotmail.com)

The song is instrumental, with two solos, they're tabbed here.
Been looking for a tab for this cool song too long now, decided to tab it myself!

NOTE: Neither Satriani nor Vai plays this.. But that remains the official party line.
No one seems to be able to figure out the real author.


Tempo = 133


Duration Legend
---------------
|-n-|  - n-tuplets


Tablature Legend
----------------
L - tied note
x - dead note
g - grace note
(n) - ghost note
> - accentuded note
NH - natural harmonic
AH - artificial harmonic
TH - tapped harmonic
SH - semi harmonic
PH - pitch harmonic
h - hammer on
p - pull off
b - bend
br - bendRelease
pb - preBend
pbr - preBendRelease
brb - bendReleaseBend
\n/ - tremolo bar dip
\n - tremolo bar dive
-/n - tremolo bar Release up
/n\ - tremolo bar inverted dip
/n - tremolo bar return
-\n - tremolo bar Release down
S - shift slide
s - legato slide
/ -  slide into from below or out of upwards
\ -  slide into from above or out of downwards
~ - vibrato
W - wide vibrato
tr - trill
TP - tremolo picking
T - tapping
S - slap
P - pop
< - fade in
^ - brush up
v - brush down

FIRST SOLO                                 
---------10--------------------------------------------------|
--10S-12--L-12S-10-8-10h-11p-10p-8-9-8-----------------------|
---------------------------------------11-11br--9------------|
--------------------------------------------------12-9g7-L-L-|
-------------------------------------------------------------|
-------------------------------------------------------------|

-----------------------------------|---------------------------------------|
-----------------------------------|---------------------------------------|
-------------------7-9~----L--L----|------------------------------7--------|
--L--------------------------------|-----------------------7-8S-9---9S-7-5-|
----10-7-7S-5-5s-7-----------------|---------------6-7-9-7-----------------|
-----------------------------------|--0-7-8-10--10-------------------------|


----------------------------------|
------------------------------/12-|
------------------9~----L---------|
--7br-5---------------------------|
--------7-5--5S-5-----------------|
----------------------------------|


--12----17----15----14-14br---12----12----------|
-----12----12----12--L-----------15----12-15----|
---------------------------------------------14-|
------------------------------------------------|
------------------------------------------------|
------------------------------------------------|

----------------------------------------|
--12------------------------------------|
-----12-14-12-12--L--L------------------|
-----------14----12-12-14~----L-----12s-|
----------------------------------------|
----------------------------------------|

-------------------------------------------------------|
------------------------------------------17p-15-------|
--------12----14----12-14-15-14-12-14S-16--------16-16-|
--14-14----14----14--L---------------------------------|
-------------------------------------------------------|
-------------------------------------------------------|

----------------------------------------------|
--17----15----17--L-15h-17p-15----15b------L--|
-----16----16----16--L---------16-------------|
----------------------------------------------|
----------------------------------------------|
----------------------------------------------|


SECOND (OUTRO) SOLO
------------------------------------|---------------------------------12-|
--------------------------------7---|--8---10---8h-10p-8~-------12-12----|
-------------------7---9---7h-9---9-|----9----9--------------------------|
-------5---5--7s-9---9---9----------|------------------------------------|
--5s-7---7--------------------------|------------------------------------|
------------------------------------|------------------------------------|


---L-----------------------12-14-15-|--L-14b----L--14pbr-12-15b~----L-------|
--15b------15pbr--15b~--------------|-----------------------------------/17-|
------------------------------------|---------------------------------------|
------------------------------------|---------------------------------------|
------------------------------------|---------------------------------------|
------------------------------------|---------------------------------------|


-------20--L--L-20--L--------------------------------/19-L-|
--L-20----20-17----20-17--L--------------------------------|
-------------------------16-------------------16-16--------|
----------------------------17-------------17--------------|
-------------------------------19-17-18-19-----------------|
-----------------------------------------------------------|


--19----19-22-19----19-22b~------------------|
-----20----------22--------------------------|
-----------------------------------12-14b----|
---------------------------------------------|
---------------------------------------------|
---------------------------------------------|

-----------------------------------------|----------------------------|
-----------------------------------------|----------------------------|
--L---L----14pbr-12-14--14--12-14-12-11b-|--L------9p-7-9~----L-------|
-----------------------------------------|-----------------------7s-9-|
-----------------------------------------|----------------------------|
-----------------------------------------|----------------------------|


----------------------------------------|-------------------------------|
----------------------------------------|-------------------------------|
----9------7---7h-9p-7---7--------------|-------------------------------|
--L---7h-9---9---------9---9-8-7-5-7p-5-|----5------5---7s-9~---------9-|
----------------------------------------|--7---5h-7---7-----------------|
----------------------------------------|-------------------------------|


---------------------------------------------|
------------------------------------------11-|
-----------------12-12-12-11~----11-12-14----|
--9s-10-10-10-10-----------------------------|
---------------------------------------------|
---------------------------------------------|

[ Tab from: http://www.guitartabs.cc/tabs/j/joe_satriani_steve_vai/formula_1_tab.html ]
------------------------------------------------|
--12-15-12-13-15-13-12-11-10-L-15b~----L--15-15-|
------------------------------------------------|
------------------------------------------------|
------------------------------------------------|
------------------------------------------------|


--12---------------------------------------------|
-----12------L-----------------------------------|
-----14br---12-14-12----12--------11----12----12-|
---------------------14----12h-14----14----14----|
-------------------------------------------------|
-------------------------------------------------|


                                                   3  3 3  
-----------------------12----------------------------12-L-|
-------------------------------------15-15b~------15------|
--14h-15p-14p-12-14-15----15p-14p-12----------------------|
----------------------------------------------------------|
----------------------------------------------------------|
----------------------------------------------------------|


   |---3--|  |---3---|  |--3--|  |---3--|  |--3--|   |---3--|  |--3--|  |--3--| 
--16p-12----12h-15p-12----12----------------------------------------12----------
---------15------------15----15-12-15p-12----12------------------12----15-12----
------------------------------------------15----15p-14p-12-14-15-------------15-
--------------------------------------------------------------------------------
--------------------------------------------------------------------------------
--------------------------------------------------------------------------------


   |---3---|  |--3--|  |---3--|  |--3--|               
--------------------------------12--------------------|
--12h-15p-12----12-----------12----15-12-15b~---------|
-------------15----15-14h-15--------------------------|
------------------------------------------------------|
------------------------------------------------------|
------------------------------------------------------|


                3                                             
--12\----L----------------------|----------------------------|
--12\----L--12--L---------------|----------------------------|
--12\----L-----12~------L-9\----|---------------------9--12--|
--12\----L----------------------|--9s----14--12~-------------|
--12\----L----------------------|----------------------------|
--12\----L----------------------|----------------------------|


--------------------------------|-------------------------------15----|
--------------------------------|----------------------------------17-|
--12b---12b--------12pb---12pb--|--12pbr----9p-7-9~------16s-19-------|
--------------------------------|-------------------------------------|
--------------------------------|-------------------------------------|
--------------------------------|-------------------------------------|


--17br------17br------17b----|--17pb---19pb---17b--17~------------|
-----------------------------|--------------------------------------|
-----------------------------|----------------------------------14s-|
-----------------------------|--------------------------------------|
-----------------------------|--------------------------------------|
-----------------------------|--------------------------------------|


-----15-----------------------------------------------|
--------15-18b----15-17-17-15----15s-12---------------|
--16--------------------------16--------15h-16p-15-14-|
------------------------------------------------------|
------------------------------------------------------|
------------------------------------------------------|


---------------------------------|
--------------15-------15b~------|
--L-----14-16----16-16--L--------|
-----17--------------------------|
---------------------------------|
---------------------------------|


------------------------------------------------|
------------15p-12----16p-12----15p-12----12----|
-----14b~----L-----14--------14--------14----14-|
------------------------------------------------|
------------------------------------------------|
------------------------------------------------|


--------------------------------------|
--------------------------------------|
--12s-11~-----------------------------|
------------14-12-14-12-12s-7~--------|
--------------------------------------|
--------------------------------------|


----------------------------------------------|
----------------------------------------12--L-|
----------------------9h-11-12-9-12s-14----14-|
----------9---9-10-12-------------------------|
--9-10-12-------------------------------------|
----------------------------------------------|


--------------------------------------------------|
--12h-13-15-14p-13p-12-----------------------15-|
-------------------------14-12-11~------14s-16----|
--------------------------------------------------|
--------------------------------------------------|
--------------------------------------------------|


--17--L-16-15-14-12-14-12------------------------------|
--------------------------16-15s-12-15p-12-11-12-11----|
----------------------------------------------------12-|
-------------------------------------------------------|
-------------------------------------------------------|
-------------------------------------------------------|


---------12---------12---------------15----|
------12----15---------15b~------/15----15-|
--14b----------14b-------------------------|
-------------------------------------------|
-------------------------------------------|
-------------------------------------------|


--20----19----17----17-17b--17br--15-17-15-----|
-----15----15----15--L---------------------19--|
-----------------------------------------------|
-----------------------------------------------|
-----------------------------------------------|
-----------------------------------------------|

  
---------------------------------------------------|---------||
--12--------------------------------------------12-|---------||
-----15-14-13-12-14-12----12--------12----12-14----|--12~----||
-----------------------14----12h-14----14----------|---------||
---------------------------------------------------|---------||
---------------------------------------------------|---------||
Comments