Joe Satriani - Top Gun Anthem Chords & Tabs

 

Top Gun Anthem Chords & Tabs

Joe Satriani Chords & Tabs

Version: 4 Type: Tab 0 ratings
1 star 2 stars 3 stars 4 stars 5 stars
comments

Top Gun Anthem Tab

 ok ppl........... this is a very good solo made by joey........ and its one of my
favorites.... here it goes....


key:

* - harmonic
\ - slide up
b - bending
~ - vibrate

E------------------------------------------------------------------|        
B------------------------------------------------------------------|
G----------12-12--10-9-10-9-----------------9-----9-10--9----10b-9~|
D------10--------------------12-12*--10-12-----12---------12-------|
A------------------------------------------------------------------|
E------------------------------------------------------------------|
                                                   

E------------------------------------------------------------------|
B------------------------------------------------------------------|
G----------12-12--10-9-10-9-----------------9-----9-10--9----12~---|
D------10--------------------12-12*--10-12-----12---------12-------|
A------------------------------------------------------------------|
E------------------------------------------------------------------|

[ Tab from: http://www.guitartabs.cc/tabs/j/joe_satriani/top_gun_anthem_tab_ver_4.html ]
E------------------------------------------------------------------|
B----------14-14--12-11-12-11---------------11---11-12--11---12b-11~|
G------11--------------------13-13---11-13-----13---------13-------|
D------------------------------------------------------------------|
A------------------------------------------------------------------|
E------------------------------------------------------------------|

E------------------------------------------------------------------|
B----------14-14--12-11-12-11---------------11---11-12--11---14~---|
G------11--------------------13-13---11-13-----13---------13-------|
D------------------------------------------------------------------|
A------------------------------------------------------------------|
E------------------------------------------------------------------|

E------------------------------------------------------------------|
B------------------------------------------------------------------|
G----------12-12--10-9-10-9---------------9---9-10--9----10b-9~----|
D------10-------------------12-12---10-12---12--------12-----------|
A------------------------------------------------------------------|
E------------------------------------------------------------------|

E------------------------------------------------------------------|
B------------------------------------------------------------------|
G----------12-12*-10-9-10-9---------------9---9-10--9----10-9------|
D------10-------------------12-12---10-12---12--------12------12~\-|
A------------------------------------------------------------------|
E------------------------------------------------------------------|


thts it....... this isn't 100% correct , but it sounds very similar...... any
comments,suggestions, or mistakes on the tab, please mail me at pyojo191@gmail.com

enjoy ;)
Comments