Joe Satriani - Top Gun Anthem Chords & Tabs

 

Top Gun Anthem Chords & Tabs

Joe Satriani Chords & Tabs

Version: 3 Type: Tab 0 ratings
1 star 2 stars 3 stars 4 stars 5 stars
comments

Top Gun Anthem Tab

                                Top Gun Anthem


the places where thers is nothing u have the instrumental fills, this is prety much accurate

------------------|-------------------|--------------------------|
------------------|-------------------|--------------------------|
------------------|-----------------3/|--5----12----12----10--9--|
------------------|-------------------|--------------------------|
------------------|-------------------|--------------------------|
------------------|-------------------|--------------------------|

-------------------------|-------------------------|--------------------|
-------------------------|-------------------------|--------------------|
--10--9--7----7----5--7--|--9----7--9--10----9--5--|--7b---7------------|
-------------------------|-------------------------|--------------------|
-------------------------|-------------------------|--------------------|
-------------------------|-------------------------|--------------------|

--------------------------|-------------------------|-------------------------|
--------------------------|-------------------------|-------------------------|
--5----12----12----10--9--|--10--9--7----7----5--7--|--9----7--9--10----9--5--|
--------------------------|-------------------------|-------------------------|
--------------------------|-------------------------|-------------------------|
--------------------------|-------------------------|-------------------------|

-------------------|---------------------------|--------------------------|
--8----------------|--7----14----14----12--11--|--12--11--9----9----7--9--|
-------------------|---------------------------|--------------------------|
-------------------|---------------------------|--------------------------|
-------------------|---------------------------|--------------------------|
-------------------|---------------------------|--------------------------|

----------------------------|--------------------|---------------------------|
--11----9--11--12----11--7--|--9b---9------------|--7----14----14----12--11--|
----------------------------|--------------------|---------------------------|
----------------------------|--------------------|---------------------------|
----------------------------|--------------------|---------------------------|
----------------------------|--------------------|---------------------------|

--------------------------|----------------------------|--9----------------|
--12--11--9----9----7--9--|--11----9--11--12----11--7--|-------------------|
--------------------------|----------------------------|-------------------|
--------------------------|----------------------------|-------------------|
--------------------------|----------------------------|-------------------|
--------------------------|----------------------------|-------------------|

--------------------------|-------------------------|-------------------------|
--------------------------|-------------------------|-------------------------|
--5----12----12----10--9--|--10--9--7----7----5--7--|--9----7--9--10----9--5--|
--------------------------|-------------------------|-------------------------|
--------------------------|-------------------------|-------------------------|
--------------------------|-------------------------|-------------------------|

--------------------|--------------------------|-------------------------|
--------------------|--------------------------|-------------------------|
--7b---7------------|--5----12----12----10--9--|--10--9--7----7----5--7--|
--------------------|--------------------------|-------------------------|
--------------------|--------------------------|-------------------------|
--------------------|--------------------------|-------------------------|

-------------------------|---------------------|------------------|
-------------------------|---------------------|------------------|
--9----7--9--10----9--7--|--7--5--5------------|------------------|
-------------------------|---------------------|------------------|
-------------------------|---------------------|------------------|
-------------------------|---------------------|------------------|

------------------|------------------|------------------|------------------|
------------------|------------------|------------------|------------------|
------------------|------------------|------------------|------------------|
------------------|------------------|------------------|------------------|
------------------|------------------|------------------|------------------|
------------------|------------------|------------------|------------------|

------------------|------------------|--------------------------|
------------------|------------------|--------------------------|
------------------|------------------|--5----12----12----10--9--|
------------------|------------------|--------------------------|
------------------|------------------|--------------------------|
------------------|------------------|--------------------------|

-------------------------|-------------------------|--------------------|
-------------------------|-------------------------|--------------------|
--10--9--7----7----5--7--|--9----7--9--10----9--5--|--7b---7------------|
-------------------------|-------------------------|--------------------|
-------------------------|-------------------------|--------------------|
-------------------------|-------------------------|--------------------|

--------------------------|-------------------------|-------------------------|
--------------------------|-------------------------|-------------------------|
--5----12----12----10--9--|--10--9--7----7----5--7--|--9----7--9--10----9--5--|
--------------------------|-------------------------|-------------------------|
--------------------------|-------------------------|-------------------------|
--------------------------|-------------------------|-------------------------|

-------------------|---------------------------|--------------------------|
--8----------------|--7----14----14----12--11--|--12--11--9----9----7--9--|
-------------------|---------------------------|--------------------------|
-------------------|---------------------------|--------------------------|
-------------------|---------------------------|--------------------------|
-------------------|---------------------------|--------------------------|

----------------------------|--------------------|---------------------------|
--11----9--11--12----11--7--|--9b---9------------|--5b---14----14----12--11--|
----------------------------|--------------------|---------------------------|
----------------------------|--------------------|---------------------------|
----------------------------|--------------------|---------------------------|
----------------------------|--------------------|---------------------------|

--------------------------|------------------------------------|
--12--11--9----9----7--9--|--11~---9~---11~---12~---11~---7~---|
--------------------------|------------------------------------|
--------------------------|------------------------------------|
--------------------------|------------------------------------|
--------------------------|------------------------------------|

--9~---------------|--------------------------|-------------------------|
-------------------|--------------------------|-------------------------|
-------------------|--5----12----12----10--9--|--10--9--7----7----5--7--|
-------------------|--------------------------|-------------------------|
-------------------|--------------------------|-------------------------|
-------------------|--------------------------|-------------------------|

-------------------------|---------------------|--------------------------|
-------------------------|---------------------|--------------------------|
--9----7--9--10----9--5--|--7b---7----7~-------|--5----12~---12----10--9--|
-------------------------|---------------------|--------------------------|
-------------------------|---------------------|--------------------------|
-------------------------|---------------------|--------------------------|

-------------------------|--------------------------------|
-------------------------|--------------------------------|
--10--9--7----7----5--7--|--------------------------------|
-------------------------|--5~---3~---2~---3~---2~--------|
-------------------------|---------------------------5~---|
-------------------------|--------------------------------|

----------------------|------------------|------------------|------------------|
----------------------|------------------|------------------|------------------|
----------------------|------------------|------------------|------------------|
----------------------|------------------|------------------|------------------|
--5~-3--3~---3--------|------------------|------------------|------------------|
----------------------|------------------|------------------|------------------|
[ Tab from: http://www.guitartabs.cc/tabs/j/joe_satriani/top_gun_anthem_tab_ver_3.html ]
------------------|------------------|------------------|------------------|
------------------|------------------|------------------|------------------|
------------------|------------------|------------------|------------------|
------------------|------------------|------------------|------------------|
------------------|------------------|------------------|------------------|
------------------|------------------|------------------|------------------|

-----------------------|-----------------------|----------------------------|
-----------------------|-----------------------|----------------------------|
--5--5------5--5-------|-----------------------|----------------------10----|
--5--5------5--5----5--|--8--8------8--8----8--|--7-8-7-5r---------7--10----|
--3--3------3--3----5--|--8--8------8--8-------|-----------8----8--7--8-----|
--------------------3--|--6--6------6--6-------|----------------------------|

-----------------------|---------------------|--------------------|
-----------------------|---------------------|--------------------|
--7--7------x----x-----|-------------3b--3b--|--3r---------3~-----|
--7--7------x----x--x--|---------------------|--------------------|
--5--5------x----x--x--|--3~-----------------|--------------------|
-----------------------|---------------------|--------------------|

-------------------------------|---------------------|
-------------------------------|---------------------|
------2~-----------------------|---------------------|
-----------3~---3~---2~---3~---|--3r-----------------|
-------------------------------|-------5----3r-------|
-------------------------------|---------------------|

--------------------12-13-14-15--12--|
----------5---5-6-8------------------|
--------5---5------------------------|
------5------------------------------|
--3----------------------------------|
----3--------------------------------|

--12--------10-------13-12----10----------|-----------------------|
-----13--------11----------13----11~----x-|-----------7b---7b-----|
--------12--------10------------------x-x-|--7~---7-5-------------|
------------------------------------------|-----------------------|
------------------------------------------|-----------------------|
------------------------------------------|-----------------------|

---------------------------|----------------------------------|
---------------------------|----------------------------------|
--5h7-3h5-2h3-0h2----------|----------------------------------|
------------------5--------|----------0---------------0-------|
---------------------------|--6-3-----3h6-----6-3-----3h6-----|
---------------------------|------6-3-----6-3-----6-3-----6-3-|

----------------------------------|-----------------------------------|
----------------------------------|--4-------4-------4-------------6--|
--8h5-----8-5---8-5---8-5---8-5---|--5-8-----5-8-----5-8-----5--8-----|
------8-5-----8-----8-----8-----8-|------8-5-----8-5-----8-5----------|
----------------------------------|-----------------------------------|
----------------------------------|-----------------------------------|

--------------------------------------|
--6b-6--4~-6b-6--4~-6b-6--4~-6b-6--4~-|
--------------------------------------|
--------------------------------------|
--------------------------------------|
--------------------------------------|

--12----10-------12-10----12----10-------12-------|
-----13----11----------11----13----11-------13----|
--------------12----------------------12-------12-|
--------------------------------------------------|
--------------------------------------------------|
--------------------------------------------------|

--12----10-------12-10----12----10----12b---|------10--12--8--10--6--8--7----|
-----13----11----------11----13----11-------|--------------------------------|
--------------12----------------------------|--------------------------------|
--------------------------------------------|--------------------------------|
--------------------------------------------|--------------------------------|
--------------------------------------------|--------------------------------|

--------------------------------------------------------------------------|
--------------------------------------------------------------------------|
--12h0h5h7-12h0h5-7-12h0h5h7-12h0h5h7-12h0h5h7-12h0h5h7-12h0h5h7-12h0h5h7-|
--------------------------------------------------------------------------|
--------------------------------------------------------------------------|
--------------------------------------------------------------------------|

------------------------------------------------------|
------------------------------------------------------|
--9h0h5-9h0h5-9h0h5-9h0h5-10h0h5-10h0h5-10h0h5-10h0h5-|
------------------------------------------------------|
------------------------------------------------------|
------------------------------------------------------|

----------------------------------------------------------|
----------------------------------------------------------|
--12h0h7-12h0h7-12h0h7-12h0h7-14h0h7-14h0h7-14h0h7-14h0h7-|
----------------------------------------------------------|
----------------------------------------------------------|
----------------------------------------------------------|

----------------------------------------------------------|
----------------------------------------------------------|
--16h0h7-16h0h7-16h0h7-16h0h7-17h0h7-17h0h7-19h0h7-19h0h7-|
----------------------------------------------------------|
----------------------------------------------------------|
----------------------------------------------------------|

--------------------------|-------------------------|-------------------------|
--------------------------|-------------------------|-------------------------|
--5----12----12----10--9--|--10--9--7----7----5--7--|--9----7--9--10----9--5--|
--------------------------|-------------------------|-------------------------|
--------------------------|-------------------------|-------------------------|
--------------------------|-------------------------|-------------------------|

--------------------|--------------------------|-------------------------|
--------------------|--------------------------|-------------------------|
--7b---7------------|--5----12----12----10--9--|--10--9--7----7----5--7--|
--------------------|--------------------------|-------------------------|
--------------------|--------------------------|-------------------------|
--------------------|--------------------------|-------------------------|

-------------------------|---------------------|--------------------------|
-------------------------|---------------------|--------------------------|
--9----7--9--10----9--7--|--7---5-5------------|--5----12----12----10--9--|
-------------------------|---------------------|--------------------------|
-------------------------|---------------------|--------------------------|
-------------------------|---------------------|--------------------------|

-------------------------|-------------------------|--------------------|
-------------------------|-------------------------|--------------------|
--10--9--7----7----5--7--|--9----7--9--10----9--5--|--7b---7------------|
-------------------------|-------------------------|--------------------|
-------------------------|-------------------------|--------------------|
-------------------------|-------------------------|--------------------|

--------------------------|-------------------------|-------------------------|
--------------------------|-------------------------|-------------------------|
--5----12----12----10--9--|--10--9--7----7----5--7--|--9----7--9--10----9--7--|
--------------------------|-------------------------|-------------------------|
--------------------------|-------------------------|-------------------------|
--------------------------|-------------------------|-------------------------|

---------------------|--------------------------|-------------------------|
---------------------|--------------------------|-------------------------|
--7---5-5------------|--5----12----12----10--9--|--10--9--7----7----5--7--|
---------------------|--------------------------|-------------------------|
---------------------|--------------------------|-------------------------|
---------------------|--------------------------|-------------------------|

-------------------------|--------------------|--------------------------|
-------------------------|--------------------|--------------------------|
--9----7--9--10----9--5--|--7b---7------------|--5----12----12----10--9--|
-------------------------|--------------------|--------------------------|
-------------------------|--------------------|--------------------------|
-------------------------|--------------------|--------------------------|

-------------------------|------------------|------------------||
-------------------------|------------------|------------------||
--10--9--7----7----5--7--|------------------|------------------||
-------------------------|------------------|------------------||
-------------------------|------------------|------------------||
-------------------------|------------------|------------------||


THIS IS AS ACCURATE AS IT GETS... PULSARAD@YAHOO.COM
Comments