Joe Satriani - Top Gun Anthem Chords & Tabs

 

Top Gun Anthem Chords & Tabs

Joe Satriani Chords & Tabs

Version: 1 Type: Tab 0 ratings
1 star 2 stars 3 stars 4 stars 5 stars
comments

Top Gun Anthem Tab

   
Here is the tab for my favorite guitar riff, the Top Gun Movie Anthem.  I have been looking for this tab and couldn't find one, so I sat down one day and figured it out.  This is my first tab.  I think it is pretty close, tell me what you think please!!!

E-----------------------------------------------------------
B-1-8-8-6/5-6/5-3-3-1-3-5-3-5-6-5-3-5-3--1-8-8-6/5-6/5-3-3-1
G-----------------------------------------------------------
D-----------------------------------------------------------
A-----------------------------------------------------------
E-----------------------------------------------------------
[ Tab from: http://www.guitartabs.cc/tabs/j/joe_satriani/top_gun_anthem_tab.html ]
E-----------------------------------------------------------
B-3-5-3-5-6-5-3-8--6-13-13-11/10-11/10-8-8-6-8-10-8-10-11-10
G-----------------------------------------------------------
D-----------------------------------------------------------
A-----------------------------------------------------------
E-----------------------------------------------------------

E-----------------------------------------------------------
B-8-10-8--6-13-13-11/10-11/10-8-8-6-8-10-8-10-11-10-8-13----
G-----------------------------------------------------------
D-----------------------------------------------------------
A-----------------------------------------------------------
E-----------------------------------------------------------

E-----------------------------------------------------------
B-1-8-8-6/5-6/5-3-3-1-3-5-3-5-6-5-3-5-3--1-8-8-6/5-6/5-3-3-1
G-----------------------------------------------------------
D-----------------------------------------------------------
A-----------------------------------------------------------
E-----------------------------------------------------------

E--------------------
B-3-5-3-5-6-5-3-3-1-1
G--------------------
D--------------------
A--------------------
E--------------------

That's all I think, enjoy and please let me know what you think.
Comments