Joe Satriani - The Souls Of Distortion Chords & Tabs

 

The Souls Of Distortion Chords & Tabs

Joe Satriani Chords & Tabs

Version: 1 Type: Tab 0 ratings
1 star 2 stars 3 stars 4 stars 5 stars
comments

The Souls Of Distortion Tab

   
-------------------------------------------------------------------------------
			The Souls Of Distortion - Joe Satriani
-------------------------------------------------------------------------------
Tabbed by:Grant Smith
Email:bulletproof__cupid@hotmail.com

Tuning:Standard
| /  slide up
| \  slide down
| h  hammer-on
| p  pull-off
| ~  vibrato
| +  harmonic
| x  Mute note
| b  Bend                        


Lead Guitar
                                                                          
E||------------------|------------------------|--------------------------|
B||------------------|------------------------|--------------------------|
G||------------------|------------------------|--------15----------------|
D||------------------|------------------------|--------13----------16----|
A||------------------|------13----13----13----|--13----------13----------|
E||------------------|------------------------|--------------------------|
                                                      
--------------------------|--------------------------|
--------------------------|--------------------------|
--------------------------|--------15----------------|
--16----------------------|--------13----------16----|
--13----13----13----13----|--13----------13----------|
--------------------------|--------------------------|
                                                      
--------------------------|--------------------------|
--------------------------|--------------------------|
--------------------------|--------15----------------|
--------------------------|--------13----------16----|
--13----13----13----13----|--13----------13----------|
--------------------------|--------------------------|
                                                                                
--------------------------|--------------------------|-------------------------|
--------------------------|--------------------------|-------------------------|
--------------------------|--------15----------------|-------------------------|
--16----------------------|--------13----------16----|----------------------6--|
--13----13----13----13----|--13----------13----------|--13----13----6----6--8--|
--------------------------|--------------------------|-------------------------|
                                                                        
----------------------|-----------------------|------------------------|
----------------------|-----------------------|------------------------|
-------------x--x--x--|--x----x--x-------6----|------------------------|
----8--------x--x--x--|--x----x--x--4----8----|--8----9---8----6----4--|
----9--------x--x--x--|--x----x--x--6---------|--9----11--9----8----6--|
----------------------|-----------------------|------------------------|
                                                                        
------------------------|-----------------------|----------------------|
------------------------|-----------------------|----------------------|
-------x--x--3--3-------|-------x---------------|--4----3--------------|
--4----x--x--4--4----6--|----8--x--6----4----4/-|--6----4----4----4----|
--6----x--x-------------|-------x-------6----6--|------------6----6----|
------------------------|-----------------------|----------------------|
                                                                            
-------------------------|-------------------------|-----------------------|
----------------x--------|-------------------------|-----------------------|
--------------3----------|--x--x--x--x--3----------|-----------x--x--8--x--|
--4----4----x------------|--x--x--x--x--4----4--6--|----8------x--x--x--x--|
--6----6------------9/---|--x--x--x--x-------6--8--|----9------x--x--x--x--|
-------------------------|-------------------------|-----------------------|
                                                                           
------------------------|------------------------|------------------------|
------------------------|------------------------|------------------------|
--x----x--x-------------|---------------------3--|--3----x--x--3-----x----|
--x----x--x--4----4/-6--|--8----9---8----6----4--|--4----x--x--4--6--x----|
--x----x--x--6----------|--9----11--9----8----6--|--6----x--x--------x----|
------------------------|------------------------|------------------------|
                                                                       
-----------------------|----------------------|-----------------------|
-----------------------|----------------------|-----------------------|
--6/-4----3------------|----------------------|--x----------x-x-x--x--|
--8/-6----4----6-------|--4----4----4----4----|--x----------x-x-x--x--|
---------------8----6--|--6-------------------|--x----------x-x-x--x--|
-----------------------|----------------------|-----------------------|
                                                                          
------------------------|------------------------|-----------------------|
------------------------|------------------------|-----------------------|
------x--x-----3--x--x--|--6----8----3--------3--|--3----x---------x-----|
------x--x--4-----x--x--|---------------6--4-----|-------x----6----x--4--|
------x--x--------x--x--|------------------------|-------x---------x-----|
------------------------|------------------------|-----------------------|
                                                                          
-----------------------|-----------------------|-------------------------|
-----------------------|-----------------------|-------------------------|
--3----4--3------------|-----------8--6--8--6--|--6/-8----x--------3-----|
---------------6----4--|--4--------------------|----------x--4--6-----4--|
-----------------------|-----------------------|-------------------------|
-----------------------|-----------------------|-------------------------|
                                                                        
----------------------|------------------------|-----------------------|
----------------------|------------------------|-----------------------|
-----------8--6----6--|--6/-8------------------|------------3--6----6--|
--4-------------------|---------------4--4--6--|--4----4---------------|
----------------------|------------6-----------|-----------------------|
----------------------|------------------------|-----------------------|
                                                                        
------------------------|----------------------|-----------------------|
------------------------|----------------------|-----------------------|
--6----8----3--------3--|--3----------------x--|--3--4----3------------|
---------------6--4-----|--------------4----x--|-----------------6--4--|
------------------------|-----------6-------x--|-----------------------|
------------------------|----------------------|-----------------------|
                                                                           
-----------------------|-------------------------|------------------------|
-----------------------|-------------------------|------------------------|
---------x--x----------|--------x--x--x----------|----------x--x----------|
--4------x--x----------|--------x--x--x--4----4--|--4----4--x--x----------|
---------x--x--6----4--|--4--6--x--x--x----------|----------x--x--6----4--|
-----------------------|-------------------------|------------------------|
                                                                             
-------------------------|----------------------|---------------------------|
-------------------------|----------------------|---------------------------|
----------x--x-----------|----------------------|---------------------------|
----------x--x--6--6--6--|--4----4--------------|-------------6--4--6-4-----|
--4--6----x--x-----------|--------------6----4--|--4--6----6------------6-4-|
-------------------------|----------------------|---------------------------|
                                                                  
----------------------|----------------------|----------------------|
----------------------|----------------------|----------------------|
----------------------|-----------x----------|--3-------------------|
----------------------|-----------x--4----4--|--4-------------------|
--6----6----6----6----|--6--------x----------|-------6----6----6----|
----------------------|----------------------|----------------------|


                                                                              
--------------------------|-------------------------|------------------------|
-------------------11--9--|--9----9-----------------|------------------------|
------------11--8---------|----------11--10----8----|--8----8----8--8--------|
--------------------------|-------------------------|------------------8--6--|
--6----6------------------|-------------------------|------------------------|
--------------------------|-------------------------|------------------------|
                                                                               
------------------------|-----------------------|-----------------------------|
------------------------|-----------------------|-----------------------------|
------------------------|--------------------x--|--8--x-x-x--x--x-x-x-x-x--x--|
--6h-8--8----8----8--6--|--6----6----6----6--x--|-----x-x-x--x--x-x-x-x-x--x--|
------------------------|--------------------x--|-----x-x-x--x--x-x-x-x-x--x--|
------------------------|-----------------------|-----------------------------|
                                                                 
------------------------------|---------------------------------|
------------------------------|---------------------------------|
--6h8-x-x-x-x-x--x-x-x--x--x--|--6h8-x-x-x-x-x--x-8-x-x-x-x-x-x-|
------x-x-x-x-x--x-x-x--x--x--|------x-x-x-x-x--x---x-x-x-x-x-x-|
------x-x-x-x-x--x-x-x--x--x--|------x-x-x-x-x--x---x-x-x-x-x-x-|
------------------------------|---------------------------------|
                                                                      
-------------------------------|------------------|------------------|
-------------------------------|------------------|------------------|
--6h8-x-x-x-x-x--x--x-x-x--x-x-|------------------|------------------|
------x-x-x-x-x--x--x-x-x--x-x-|------------------|------------------|
------x-x-x-x-x--x--x-x-x--x-x-|------------------|------------------|
-------------------------------|------------------|------------------|
                                                                              
------------------|------------------|--------------------|------------------|
------------------|------------------|--------------------|------------------|
------------------|------------------|--------------------|------------------|
------------------|------------------|--------------------|------------------|
------------------|------------------|--------------------|------------------|
------------------|------------------|--13----------------|------------------|
                                                             
------------------|------------------|----------------------|
------------------|------------------|----------------------|
------------------|------------------|----------------------|
------------------|------------------|--6----6----6----6----|
------------------|------------------|----------------------|
------------------|------------------|----------------------|
                                                             
----------------------|------------------|------------------|
----------------------|------------------|------------------|
----------------------|------------------|------------------|
--6----6----6----6----|------------------|------------------|
----------------------|------------------|------------------|
----------------------|------------------|------------------|
                                                               
--------------------|------------------|----------------------|
--------------------|------------------|----------------------|
--------------------|------------------|----------------------|
--------------------|------------------|--8----8----8----8----|
--------------------|------------------|----------------------|
--13----------------|------------------|----------------------|
                                                                   
--------------------|----------------------|----------------------|
--------------------|----------------------|----------------------|
--------------------|--6----6----6----6----|--6----6--------------|
--8----8------------|----------------------|------------6----6----|
--------------------|----------------------|----------------------|
--------------------|----------------------|----------------------|
                                                                
----------------------|---------------------|------------------|
----------------------|---------------------|------------------|
----------------------|---------------------|------------------|
--6----6----6----6----|--6----6----6--------|------------------|
----------------------|---------------------|------------------|
----------------------|---------------------|------------------|
                                                                                
------------------|------------------|------------------|----------------------|
------------------|------------------|------------------|----------------------|
------------------|------------------|------------------|----------------------|
------------------|------------------|------------------|--6----6----6----6----|
------------------|------------------|------------------|----------------------|
------------------|------------------|------------------|----------------------|
                                                             
------------------|----------------------|------------------|
------------------|----------------------|------------------|
------------------|----------------------|------------------|
------------------|--6----6----6----6----|------------------|
------------------|----------------------|------------------|
------------------|----------------------|------------------|
                                                                 
----------------------|------------------|----------------------|
----------------------|------------------|----------------------|
----------------------|------------------|----------------------|
--8----8----8----8----|------------------|--8----8----8----8----|
----------------------|------------------|----------------------|
----------------------|------------------|----------------------|
                                                             
------------------|----------------------|------------------|
------------------|----------------------|------------------|
------------------|----------------------|------------------|
------------------|--8----8----8----8----|------------------|
------------------|----------------------|------------------|
------------------|----------------------|------------------|
                                                                   
----------------------|------------------|------------------------|
----------------------|------------------|------------------------|
----------------------|------------------|--x----x--x-------------|
--8----8----8----8----|------------------|--x----x--x-------------|
----------------------|------------------|--x----x--x--6----6--8--|
----------------------|------------------|------------------------|
                                                                           
-------------------------|------------------------|-----------------------|
-------------------------|------------------------|-----------------------|
---------x--x-x-x--x--x--|--x----x--x----------x--|-----------------------|
---------x--x-x-x--x--x--|--x----x--x--4--4----x--|--8----9--8----6----4--|
----9----x--x-x-x--x--x--|--x----x--x--6--6----x--|---------------8-------|
-------------------------|------------------------|-----------------------|
                                                                        
-------------------------|-----------------------|---------------------|
-------------------------|-----------------------|---------------------|
--3----x--x--------x-----|-----------------------|----------------3----|
--4----x--x--4--4--x--4--|--8----6------------6--|------8----4---------|
-------x--x--6--6--x-----|--9----8----9--8----8--|------9----6---------|
-------------------------|-----------------------|---------------------|
                                                                         
------------------------|----------------------|------------------------|
------------------------|----------------------|------------------------|
--3----3----3----x-x-4--|--x-------------------|-----------x--x--x--x-x-|
--4----4----4----x-x-x--|--x--------4----4--6--|----8------x--x--x--x-x-|
--6----6----6----x-x-x--|--x--------6----6--8--|----9------x--x--x--x-x-|
------------------------|----------------------|------------------------|
                                                                            
-------------------------|-----------------------|-------------------------|
-------------------------|-----------------------|-------------------------|
---------x--x------------|--3----4--3------------|--3-------x-x------------|
---------x--x------------|--4----6--4----6----4--|--4----4/-x-x------------|
--6p4h6--x--x--6--8------|---------------8-------|----------x-x-6--8----6--|
-------------------------|-----------------------|-------------------------|
                                                                      
-----------------------|----------------------|----------------------|
-----------------------|----------------------|----------------------|
--6/-4----3---------3--|--3----3--------------|----------------------|
--8/-6----4----6-------|--4---------6----8----|--4----4----4----4----|
---------------8-------|------------8----9----|--6----6----6----6----|
-----------------------|----------------------|----------------------|
                                                                         
--------------------------|------------------------|-----------------------|
--------------------------|------------------------|-----------------------|
-------x-x-x-----3--x--x--|--6----8----3--------3--|--3----x---------x-----|
--4----x-x-x--4-----x--x--|---------------6--4-----|-------x----6----x--4--|
-------x-x-x--------x--x--|------------------------|-------x---------x-----|
--------------------------|------------------------|-----------------------|
                                                                         
-----------------------|----------------------|-------------------------|
-----------------------|----------------------|-------------------------|
--3----4--3------------|-----------8--6----6--|--6/-8----x--------3-----|
---------------6----4--|--4-------------------|----------x--4--6-----4--|
-----------------------|----------------------|-------------------------|
-----------------------|----------------------|-------------------------|
                                                                      
----------------------|----------------------|-----------------------|
----------------------|----------------------|-----------------------|
-----------8--6----6--|--6/-8----------------|------------3--6----6--|
--4-------------------|---------------4------|--4----4---------------|
----------------------|------------6---------|-----------------------|
----------------------|----------------------|-----------------------|
                                                                         
------------------------|-----------------------|-----------------------|
------------------------|-----------------------|-----------------------|
--6----8----3--------3--|--3--------------------|-------4--3------------|
---------------6--4-----|--------------4--6--4--|--8------------6----4--|
------------------------|-----------6-----------|-----------------------|
------------------------|-----------------------|-----------------------|
                                                                          
------------------------|--------------------------|------------------------|
------------------------|--------------------------|------------------------|
----------x--x----------|--------x--x--------3-----|----------x-------------|
--4-------x--x----------|--------x--x--4--6-----4--|--4----4--x-------------|
-------6--x--x--6----4--|--4--6--x--x--------------|----------x--6--4----4--|
------------------------|--------------------------|------------------------|
                                                                               
---------------------------|-----------------------|--------------------------|
---------------------------|-----------------------|--------------------------|
----------x-x--------------|------------x----------|----------x---------------|
----------x-x-----4--------|--4----4----x----------|----------x--6--4---------|
--4--6----x-x-4-6----6--4--|------------x--6----4--|--4--6----x--------6-4-6--|
---------------------------|-----------------------|--------------------------|
                                                                     
----------------------|-------------------------|----------------------|
----------------------|-------------------------|----------------------|
----------------------|-------------------------|----------------------|
----------------------|----------------------3--|--4----4----4----4----|
--6----6----6----6----|--6----6--4--4--6--6-----|----------------------|
----------------------|-------------------------|----------------------|
                                                                          
-------------------------|----------------------|------------------------|
-------------------------|----------------------|------------------------|
----------x-x------------|--6----8--------------|------------------------|
--4~---4~-x-x-6h-8--8----|------------8----8----|--8----8----8--9--8--6--|
----------x-x------------|----------------------|------------------------|
-------------------------|----------------------|------------------------|
                                                                            
-------------------------|----------------------|--------------------------|
-------------------------|----------------------|------------x-------------|
-------------------------|----------------------|------------x--8--11--10--|
--4----6--6--8p-6--4--3--|----------------------|------------x-------------|
-------------------------|--6----6----6----6----|--6----6------------------|
-------------------------|----------------------|--------------------------|
                                                          
--------------------------|------------------------------|
--------------------------|------x--11----11--x----------|
--10----10----10----10----|--10--x------------x--11--10--|
--------------------------|------x------------x----------|
--------------------------|------------------------------|
--------------------------|------------------------------|
                                                         
--------------------------|-----------------------------|
--------------------------|------------------x----------|
--10----10----10----10----|--10----10----10--x--11--10--|
--------------------------|------------------x----------|
--------------------------|-----------------------------|
--------------------------|-----------------------------|
                                                     
---------------------------|------------------------|
------------------x--------|--7----7----------------|
--10----10----10--x--8--8--|--8---------10----10----|
------------------x--------|------------------------|
---------------------------|------------------------|
---------------------------|------------------------|
                                                                     
---------------------------|---------------------|------------------|
------------------------x--|---------------------|------------------|
--10----10----10----10--x--|--8----8----8--------|------------------|
------------------------x--|---------------------|------------------|
---------------------------|---------------------|------------------|
---------------------------|---------------------|------------------|
                                       
------------------|------------------||
------------------|------------------||
------------------|------------------||
------------------|------------------||
------------------|------------------||
------------------|------------------||                             

[ Tab from: http://www.guitartabs.cc/tabs/j/joe_satriani/the_souls_of_distortion_tab.html ]
Solo Guitar - Enter 1.51
                                                                               
                                                          
E||--------------------------|--------------------------------------|
B||--14b-------------16------|--14--16~-----16------14b-16------14--|
G||----------------------15--|------------------15----------15------|
D||--------------------------|--------------------------------------|
A||--------------------------|--------------------------------------|
E||--------------------------|--------------------------------------|
                           
--------------14b-----14----|
--16~---16------------------|
-----------15---------------|
----------------------------|
----------------------------|
----------------------------|
                                                                             
---------------------------------------------------|--------------------------|
--16--14-16-----14---------------------------------|--------------------------|
-------------15-----15-14-15-14-13-------13--------|--------------------------|
-----------------------------------16-13----13-16b-|--13r---11~-----11/---15b-|
---------------------------------------------------|--------------------------|
---------------------------------------------------|--------------------------|
                                                                   
----------------------------------|--------------------------14b-------|
----------------------------------|----------16--14b-16----------------|
----------------------------------|--13b-15--------------15------------|
--15r---------13-15-----13--15/16-|------------------------------------|
--------------------16------------|------------------------------------|
----------------------------------|------------------------------------|
                          
------16b------------------13-|
----------16~-----14-16-------|
------------------------15----|
------------------------------|
------------------------------|
------------------------------|
                                              
--13b-13-------------------------------------------|
---------16-14-16-14-13-------13-------------------|
------------------------15-13----15-13h15p13-------|
---------------------------------------------15-13-|
---------------------------------------------------|
---------------------------------------------------|
                                               
-----------13-------13-------------------------------------|
--------16----16-14----16-13-------------------------------|
-----15----------------------13----------------------------|
--13----------------------------15-13/11----13----11-10----|
-----------------------------------------13----13-------13-|
-----------------------------------------------------------|
                  
------------------------------|
------------------------------|
------------------------------|
--10r------------10--------10-|
--------------13-----11-13----|
------------------------------|
                                                          
---------------------------------------------------------|
---------------------------------------------------------|
------------------------------------8-------8h10p8-------|
--11----10----8-------------8h10h11---10h11--------11p10-|
-----13----11---11p9p8h9h11------------------------------|
---------------------------------------------------------|
                                                          
---------------------------------------------------------|
---------------------------------------------------------|
---------------------------------------------------------|
--11p10p8----8h10p8---------8----------------------------|
----------11--------11p9h11---11p9p8h11p9p8----------13~-|
--------------------------------------------11p9/11------|
                                                                           
---------------18b-----|----------21/--x------|---------------------------|
-----------------------|-------------------7--|--7--------7/-x--13--14----|
------------x----------|----------------------|------------------------17b|
------------x----------|----------------------|---------------------------|
------16----x----------|----------------------|---------------------------|
-----------------------|----------------------|---------------------------|
                                                                             
-----------------------------------------18-14-20b-|------20~---------------|
--14----14----14----14----14h19p18----19-----------|----------------21-19r--|
-----17b---17b---17b---17b---------18--------------|------------------------|
---------------------------------------------------|------------------------|
---------------------------------------------------|------------------------|
---------------------------------------------------|------------------------|
                                                 
------18----------------18----18----21----20----|
---------------21-------------------------------|
---20----20-18----18-20----20----20----20----20-|
------------------------------------------------|
------------------------------------------------|
------------------------------------------------|
                                                   
--------------------------------------------------|
--21----21-------19-19-------19-------18----19----|
-----20----20/18-------18-17----17-15----15----15-|
--------------------------------------------------|
--------------------------------------------------|
--------------------------------------------------|
                                              
----------------------16p14------------------|
--18----16----14~-----------16--16h18p16-----|
-----15----15----------------------------15--|
---------------------------------------------|
---------------------------------------------|
---------------------------------------------|
                                                            
--------------------------------------------13-------------|
------------------------------------------x----16p14p13----|
-----------------------------------------------------------|
----18-16-15-18p16p15----15--15----------------------------|
----------------------16--------18p16p15-------------------|
-----------------------------------------------------------|
                                                             
--------------------------------------------------------------|
--------------------------------------------------------------|
--14p13p12p11--13p12p11/10---13-11p10-------------------------|
--------------------------------------13p11p10h-13p11p10/8----|
--------------------------------------------------------------|
--------------------------------------------------------------|
                                                         
--------------------------------------------------------|
--------------------------------------------------------|
--------------------------------------------------------|
--10h11p10p8-8h10p8-------------------6h8p6-------------|
--------------------11p9p8-9h11-9p8h9-------9p8h9p6/4/6-|
--------------------------------------------------------|
                                                               
-------------------14-16b-------|--14----------14/-------14---|
--14b-16----11-16---------------|-----16~----------13-16------|
---------15---------------------|-----------------------------|
--------------------------------|-----------------------------|
--------------------------------|-----------------------------|
--------------------------------|-----------------------------|
                                                                   
--16r---------------14-16~------|--------------18r--14------14----|
--------16--14--16--------------|--16/--x-16------------16-----16-|
--------------------------------|---------------------------------|
--------------------------------|---------------------------------|
--------------------------------|---------------------------------|
--------------------------------|---------------------------------|
                                                  
--14-----21b------21r-----|----------21/---------|
-----16-------------------|----------------------|
--------------------------|------------------13--|
--------------------------|----------------------|
--------------------------|----------------------|
--------------------------|----------------------|
                                                                              
--14----11h14p11-------------------------------------------------------------|
-----14----------14-------11h14p11-------------------------------------------|
--------------------20p13----------13-13-13-11h13p11-------------------------|
-----------------------------------------------------13-13----11h13p11h13----|
-----------------------------------------------------------13-------------13-|
-----------------------------------------------------------------------------|
                                                      
----------------------------|------------------------|
----------------------------|------------------------|
--------------------11------|------------------------|
--11------11/---11------13--|--15~-----15/-8----8~---|
----------------------------|------------------------|
----------------------------|------------------------|
                                                 
------------------------------------------------|
------------------------------------------------|
---------------------------------------8p6------|
----9-11-9h11p9p8-8r6/-8-9h11p9p8/9h11-----9/11-|
------------------------------------------------|
------------------------------------------------|
                                                        
-------------------------------------------------------|
---------------------------------------9-------9-----9-|
-----8h10p8---------------8h10h11p8h10b--11p10---10b---|
--11--------11/9-8---9h11------------------------------|
-------------------------------------------------------|
-------------------------------------------------------|
                                                                   
--------------9-------9h11----9-13h14h16p14p13h14h14/18p16p14h16--|
------9h11h12---11h12------12-------------------------------------|
--10b-------------------------------------------------------------|
------------------------------------------------------------------|
------------------------------------------------------------------|
------------------------------------------------------------------|
                                                               
--22r---22----22--------|------------------|------------------||
------------------------|------------------|------------------||
------------------------|------------------|------------------||
------------------------|------------------|------------------||
------------------------|------------------|------------------||
------------------------|------------------|------------------||
                                                                           

Rhythm Guitar
                                                                          
E||------------------|-------------------------|-------------------------|
B||------------------|-------------------------|-------------------------|
G||------------------|-------------------------|-------------------------|
D||------------------|-------------------------|-------------------------|
A||------------------|--6----6--------6-----2--|--2----2--------2-----6--|
E||------------------|--6----6--6--6--6--6--2--|--2----2--2--2--2--2--6--|
B||------------------|--4----4--4--4--4--4--0--|--0----0--0--0--0--0--4--|
                                                                              
-------------------------|-------------------------|-------------------------|
-------------------------|-------------------------|-------------------------|
-------------------------|-------------------------|-------------------------|
-------------------------|-------------------------|-------------------------|
--6----6--------6-----2--|--2----2--------2-----6--|--6----6--------6-----2--|
--6----6--6--6--6--6--2--|--2----2--2--2--2--2--6--|--6----6--6--6--6--6--2--|
--4----4--4--4--4--4--0--|--0----0--0--0--0--0--4--|--4----4--4--4--4--4--0--|
                                                                             
-------------------------|-------------------------|-------------------------|
-------------------------|-------------------------|-------------------------|
-------------------------|-------------------------|-------------------------|
-------------------------|-------------------------|-------------------------|
--2----2--------2-----6--|--6----6--------6-----2--|--2----2--------2-----6--|
--2----2--2--2--2--2--6--|--6----6--6--6--6--6--2--|--2----2--2--2--2--2--6--|
--0----0--0--0--0--0--4--|--4----4--4--4--4--4--0--|--0----0--0--0--0--0--4--|
                                                                              
-------------------------|-------------------------|-------------------------|
-------------------------|-------------------------|-------------------------|
-------------------------|-------------------------|-------------------------|
-------------------------|-------------------------|-------------------------|
--6----6--------6-----2--|--2----2--------2-----6--|--6----6--------6-----2--|
--6----6--6--6--6--6--2--|--2----2--2--2--2--2--6--|--6----6--6--6--6--6--2--|
--4----4--4--4--4--4--0--|--0----0--0--0--0--0--4--|--4----4--4--4--4--4--0--|
                                                                              
-------------------------|-------------------------|-------------------------|
-------------------------|-------------------------|-------------------------|
-------------------------|-------------------------|-------------------------|
-------------------------|-------------------------|-------------------------|
--2----2--------2-----6--|--6----6--------6-----2--|--2----2--------2-----6--|
--2----2--2--2--2--2--6--|--6----6--6--6--6--6--2--|--2----2--2--2--2--2--6--|
--0----0--0--0--0--0--4--|--4----4--4--4--4--4--0--|--0----0--0--0--0--0--4--|
                                                                              
-------------------------|-------------------------|-------------------------|
-------------------------|-------------------------|-------------------------|
-------------------------|-------------------------|-------------------------|
-------------------------|-------------------------|-------------------------|
--6----6--------6-----2--|--2----2--------2-----6--|--6----6--------6-----2--|
--6----6--6--6--6--6--2--|--2----2--2--2--2--2--6--|--6----6--6--6--6--6--2--|
--4----4--4--4--4--4--0--|--0----0--0--0--0--0--4--|--4----4--4--4--4--4--0--|
                                                                              
-------------------------|-------------------------|-------------------------|
-------------------------|-------------------------|-------------------------|
-------------------------|-------------------------|-------------------------|
-------------------------|-------------------------|-------------------------|
--2----2--------2-----6--|--6----6--------6-----2--|--2----2--------2-----6--|
--2----2--2--2--2--2--6--|--6----6--6--6--6--6--2--|--2----2--2--2--2--2--6--|
--0----0--0--0--0--0--4--|--4----4--4--4--4--4--0--|--0----0--0--0--0--0--4--|
                                                                              
-------------------------|-------------------------|-------------------------|
-------------------------|-------------------------|-------------------------|
-------------------------|-------------------------|-------------------------|
-------------------------|-------------------------|-------------------------|
--6----6--------6-----2--|--2----2--------2-----6--|--6----6--------6-----2--|
--6----6--6--6--6--6--2--|--2----2--2--2--2--2--6--|--6----6--6--6--6--6--2--|
--4----4--4--4--4--4--0--|--0----0--0--0--0--0--4--|--4----4--4--4--4--4--0--|
                                                                              
-------------------------|-------------------------|-------------------------|
-------------------------|-------------------------|-------------------------|
-------------------------|-------------------------|-------------------------|
-------------------------|-------------------------|-------------------------|
--2----2--------2-----9--|--9----9--------9-----8--|--8----8--------8-----6--|
--2----2--2--2--2--2--9--|--9----9--9--9--9--9--8--|--8----8--8--8--8--8--6--|
--0----0--0--0--0--0--7--|--7----7--7--7--7--7--6--|--6----6--6--6--6--6--4--|
                                                                              
-------------------------|-------------------------|-------------------------|
-------------------------|-------------------------|-------------------------|
-------------------------|-------------------------|-------------------------|
-------------------------|-------------------------|-------------------------|
--6----6--------6-----6--|--6----6--------6-----2--|--2----2--------2-----2--|
--6----6--6--6--6--6--6--|--6----6--6--6--6--6--2--|--2----2--2--2--2--2--2--|
--4----4--4--4--4--4--4--|--4----4--4--4--4--4--0--|--0----0--0--0--0--0--0--|
                                                                              
-------------------------|-------------------------|-------------------------|
-------------------------|-------------------------|-------------------------|
-------------------------|-------------------------|-------------------------|
-------------------------|-------------------------|-------------------------|
--2----2--------2-----2--|--2----2--------2-----2--|--2----2--------2-----9--|
--2----2--2--2--2--2--2--|--2----2--2--2--2--2--2--|--2----2--2--2--2--2--9--|
--0----0--0--0--0--0--0--|--0----0--0--0--0--0--0--|--0----0--0--0--0--0--7--|
                                                                              
-------------------------|-------------------------|-------------------------|
-------------------------|-------------------------|-------------------------|
-------------------------|-------------------------|-------------------------|
-------------------------|-------------------------|-------------------------|
--9----9--------9-----8--|--8----8--------8-----6--|--6----6--------6-----6--|
--9----9--9--9--9--9--8--|--8----8--8--8--8--8--6--|--6----6--6--6--6--6--6--|
--7----7--7--7--7--7--6--|--6----6--6--6--6--6--4--|--4----4--4--4--4--4--4--|
                                                                              
-------------------------|-------------------------|-------------------------|
-------------------------|-------------------------|-------------------------|
-------------------------|-------------------------|-------------------------|
-------------------------|-------------------------|-------------------------|
--6----6--------6-----2--|--2----2--------2-----4--|--4----4--------4-----2--|
--6----6--6--6--6--6--2--|--2----2--2--2--2--2--4--|--4----4--4--4--4--4--2--|
--4----4--4--4--4--4--0--|--0----0--0--0--0--0--2--|--2----2--2--2--2--2--0--|
                                                                              
-------------------------|-------------------------|-------------------------|
-------------------------|-------------------------|-------------------------|
-------------------------|-------------------------|-------------------------|
-------------------------|-------------------------|-------------------------|
--2----2--------2-----4--|--4----4--------4-----4--|--2----2--------2-----4--|
--2----2--2--2--2--2--4--|--4----4--4--4--4--4--4--|--2----2--2--2--2--2--4--|
--0----0--0--0--0--0--2--|--2----2--2--2--2--2--2--|--0----0--0--0--0--0--2--|
                                                                              
-------------------------|-------------------------|-------------------------|
-------------------------|-------------------------|-------------------------|
-------------------------|-------------------------|-------------------------|
-------------------------|-------------------------|-------------------------|
--4----4--------4-----4--|--6----6--------6-----2--|--2----2--------2-----6--|
--4----4--4--4--4--4--4--|--6----6--6--6--6--6--2--|--2----2--2--2--2--2--6--|
--2----2--2--2--2--2--2--|--4----4--4--4--4--4--0--|--0----0--0--0--0--0--4--|
                                                                              
-------------------------|-------------------------|-------------------------|
-------------------------|-------------------------|-------------------------|
-------------------------|-------------------------|-------------------------|
-------------------------|-------------------------|-------------------------|
--6----6--------6-----2--|--2----2--------2-----6--|--6----6--------6-----2--|
--6----6--6--6--6--6--2--|--2----2--2--2--2--2--6--|--6----6--6--6--6--6--2--|
--4----4--4--4--4--4--0--|--0----0--0--0--0--0--4--|--4----4--4--4--4--4--0--|
                                                                              
-------------------------|-------------------------|-------------------------|
-------------------------|-------------------------|-------------------------|
-------------------------|-------------------------|-------------------------|
-------------------------|-------------------------|-------------------------|
--2----2--------2-----6--|--6----6--------6-----2--|--2----2--------2-----6--|
--2----2--2--2--2--2--6--|--6----6--6--6--6--6--2--|--2----2--2--2--2--2--6--|
--0----0--0--0--0--0--4--|--4----4--4--4--4--4--0--|--0----0--0--0--0--0--4--|
                                                                              
-------------------------|-------------------------|-------------------------|
-------------------------|-------------------------|-------------------------|
-------------------------|-------------------------|-------------------------|
-------------------------|-------------------------|-------------------------|
--6----6--------6-----6--|--6----6--------6-----6--|--6----6--------6-----6--|
--6----6--6--6--6--6--6--|--6----6--6--6--6--6--6--|--6----6--6--6--6--6--6--|
--4----4--4--4--4--4--4--|--4----4--4--4--4--4--4--|--4----4--4--4--4--4--4--|
                                                                          
-------------------------|-------------------------|------------------------|
-------------------------|-------------------------|------------------------|
-------------------------|-------------------------|------------------------|
-------------------------|--6----6--------6-----6--|--6----6-------6-----6--|
--6----6--------6-----6--|--6----6--6--6--6--6--6--|--6----6----6--6--6--6--|
--6----6--6--6--6--6--6--|--4----4--4--4--4--4--4--|--4----4----4--4--4--4--|
--4----4--4--4--4--4--4--|-------------------------|------------------------|
                                                                
------------------------|------------------------|------------------------|
------------------------|------------------------|------------------------|
------------------------|------------------------|------------------------|
--6----6-------6-----6--|--6----6-------6--------|------------------------|
--6----6----6--6--6--6--|--6----6----6--6--6--6--|--6----6-------6-----6--|
--4----4----4--4--4--4--|--4----4----4--4--4--6--|--6----6----6--6--6--6--|
------------------------|---------------------4--|--4----4----4--4--4--4--|
                                                                      
------------------------|------------------------|------------------------|
------------------------|------------------------|------------------------|
------------------------|------------------------|------------------------|
------------------------|------------------------|---------------------6--|
--6----6-------6-----6--|--6----6-------6-----6--|--6----6-------6-----6--|
--6----6----6--6--6--6--|--6----6----6--6--6--6--|--6----6----6--6--6--4--|
--4----4----4--4--4--4--|--4----4----4--4--4--4--|--4----4----4--4--4-----|
                                                                           
------------------------|------------------------|------------------------|
------------------------|------------------------|------------------------|
------------------------|------------------------|------------------------|
--6----6-------6-----6--|--6----6-------6-----6--|--6----6-------6-----6--|
--6----6----6--6--6--6--|--6----6----6--6--6--6--|--6----6----6--6--6--6--|
--4----4----4--4--4--4--|--4----4----4--4--4--4--|--4----4----4--4--4--4--|
------------------------|------------------------|------------------------|
                                                                           
------------------------|------------------------|------------------------|
------------------------|------------------------|------------------------|
------------------------|------------------------|------------------------|
--6----6-------6--------|------------------------|------------------------|
--6----6----6--6--6--6--|--6----6-------6-----6--|--6----6-------6-----6--|
--4----4----4--4--4--6--|--6----6----6--6--6--6--|--6----6----6--6--6--6--|
---------------------4--|--4----4----4--4--4--4--|--4----4----4--4--4--4--|
                                                                           
------------------------|------------------------|------------------------|
------------------------|------------------------|------------------------|
------------------------|------------------------|------------------------|
------------------------|---------------------6--|--6----6-------6-----6--|
--6----6-------6-----6--|--6----6-------6-----6--|--6----6----6--6--6--6--|
--6----6----6--6--6--6--|--6----6----6--6--6--4--|--4----4----4--4--4--4--|
--4----4----4--4--4--4--|--4----4----4--4--4-----|------------------------|
                                                                           
------------------------|------------------------|------------------------|
------------------------|------------------------|------------------------|
------------------------|------------------------|------------------------|
--6----6-------6-----6--|--6----6-------6-----6--|--6----6-------6--------|
--6----6----6--6--6--6--|--6----6----6--6--6--6--|--6----6----6--6--6--6--|
--4----4----4--4--4--4--|--4----4----4--4--4--4--|--4----4----4--4--4--6--|
------------------------|------------------------|---------------------4--|
                                                                           
------------------------|------------------------|------------------------|
------------------------|------------------------|------------------------|
------------------------|------------------------|------------------------|
------------------------|------------------------|------------------------|
--6----6-------6-----6--|--6----6-------6-----6--|--6----6-------6-----6--|
--6----6----6--6--6--6--|--6----6----6--6--6--6--|--6----6----6--6--6--6--|
--4----4----4--4--4--4--|--4----4----4--4--4--4--|--4----4----4--4--4--4--|
                                                                           
------------------------|------------------------|------------------------|
------------------------|------------------------|------------------------|
------------------------|------------------------|------------------------|
---------------------6--|--6----6-------6-----6--|--6----6-------6-----6--|
--6----6-------6-----6--|--6----6----6--6--6--6--|--6----6----6--6--6--6--|
--6----6----6--6--6--4--|--4----4----4--4--4--4--|--4----4----4--4--4--4--|
--4----4----4--4--4-----|------------------------|------------------------|
                                                                            
------------------------|------------------------|-------------------------|
------------------------|------------------------|-------------------------|
------------------------|------------------------|-------------------------|
--6----6-------6-----6--|--6----6-------6--------|-------------------------|
--6----6----6--6--6--6--|--6----6----6--6--6--6--|--6----6--------6-----2--|
--4----4----4--4--4--4--|--4----4----4--4--4--6--|--6----6--6--6--6--6--2--|
------------------------|---------------------4--|--4----4--4--4--4--4--0--|
                                                                              
-------------------------|-------------------------|-------------------------|
-------------------------|-------------------------|-------------------------|
-------------------------|-------------------------|-------------------------|
-------------------------|-------------------------|-------------------------|
--2----2--------2-----6--|--6----6--------6-----2--|--2----2--------2-----6--|
--2----2--2--2--2--2--6--|--6----6--6--6--6--6--2--|--2----2--2--2--2--2--6--|
--0----0--0--0--0--0--4--|--4----4--4--4--4--4--0--|--0----0--0--0--0--0--4--|
                                                                              
-------------------------|-------------------------|-------------------------|
-------------------------|-------------------------|-------------------------|
-------------------------|-------------------------|-------------------------|
-------------------------|-------------------------|-------------------------|
--6----6--------6-----2--|--2----2--------2-----6--|--6----6--------6-----2--|
--6----6--6--6--6--6--2--|--2----2--2--2--2--2--6--|--6----6--6--6--6--6--2--|
--4----4--4--4--4--4--0--|--0----0--0--0--0--0--4--|--4----4--4--4--4--4--0--|
                                                                              
-------------------------|-------------------------|-------------------------|
-------------------------|-------------------------|-------------------------|
-------------------------|-------------------------|-------------------------|
-------------------------|-------------------------|-------------------------|
--2----2--------2-----6--|--6----6--------6-----2--|--2----2--------2-----6--|
--2----2--2--2--2--2--6--|--6----6--6--6--6--6--2--|--2----2--2--2--2--2--6--|
--0----0--0--0--0--0--4--|--4----4--4--4--4--4--0--|--0----0--0--0--0--0--4--|
                                                                              
-------------------------|-------------------------|-------------------------|
-------------------------|-------------------------|-------------------------|
-------------------------|-------------------------|-------------------------|
-------------------------|-------------------------|-------------------------|
--6----6--------6-----2--|--2----2--------2-----6--|--6----6--------6-----2--|
--6----6--6--6--6--6--2--|--2----2--2--2--2--2--6--|--6----6--6--6--6--6--2--|
--4----4--4--4--4--4--0--|--0----0--0--0--0--0--4--|--4----4--4--4--4--4--0--|
                                                                              
-------------------------|-------------------------|-------------------------|
-------------------------|-------------------------|-------------------------|
-------------------------|-------------------------|-------------------------|
-------------------------|-------------------------|-------------------------|
--2----2--------2-----6--|--6----6--------6-----2--|--2----2--------2-----6--|
--2----2--2--2--2--2--6--|--6----6--6--6--6--6--2--|--2----2--2--2--2--2--6--|
--0----0--0--0--0--0--4--|--4----4--4--4--4--4--0--|--0----0--0--0--0--0--4--|
                                                                              
-------------------------|-------------------------|-------------------------|
-------------------------|-------------------------|-------------------------|
-------------------------|-------------------------|-------------------------|
-------------------------|-------------------------|-------------------------|
--6----6--------6-----2--|--2----2--------2-----6--|--6----6--------6-----2--|
--6----6--6--6--6--6--2--|--2----2--2--2--2--2--6--|--6----6--6--6--6--6--2--|
--4----4--4--4--4--4--0--|--0----0--0--0--0--0--4--|--4----4--4--4--4--4--0--|
                                                                              
-------------------------|-------------------------|-------------------------|
-------------------------|-------------------------|-------------------------|
-------------------------|-------------------------|-------------------------|
-------------------------|-------------------------|-------------------------|
--2----2--------2-----6--|--6----6--------6-----2--|--2----2--------2-----6--|
--2----2--2--2--2--2--6--|--6----6--6--6--6--6--2--|--2----2--2--2--2--2--6--|
--0----0--0--0--0--0--4--|--4----4--4--4--4--4--0--|--0----0--0--0--0--0--4--|
                                                                              
-------------------------|-------------------------|-------------------------|
-------------------------|-------------------------|-------------------------|
-------------------------|-------------------------|-------------------------|
-------------------------|-------------------------|-------------------------|
--6----6--------6-----2--|--2----2--------2-----9--|--9----9--------9-----8--|
--6----6--6--6--6--6--2--|--2----2--2--2--2--2--9--|--9----9--9--9--9--9--8--|
--4----4--4--4--4--4--0--|--0----0--0--0--0--0--7--|--7----7--7--7--7--7--6--|
                                                                         
-------------------------|-------------------------|-------------------------|
-------------------------|-------------------------|-------------------------|
-------------------------|-------------------------|-------------------------|
-------------------------|-------------------------|-------------------------|
--8----8--------8-----6--|--6----6--------6-----6--|--6----6--------6-----2--|
--8----8--8--8--8--8--6--|--6----6--6--6--6--6--6--|--6----6--6--6--6--6--2--|
--6----6--6--6--6--6--4--|--4----4--4--4--4--4--4--|--4----4--4--4--4--4--0--|
                                                                              
-------------------------|-------------------------|-------------------------|
-------------------------|-------------------------|-------------------------|
-------------------------|-------------------------|-------------------------|
-------------------------|-------------------------|-------------------------|
--2----2--------2-----2--|--2----2--------2-----2--|--2----2--------2-----2--|
--2----2--2--2--2--2--2--|--2----2--2--2--2--2--2--|--2----2--2--2--2--2--2--|
--0----0--0--0--0--0--0--|--0----0--0--0--0--0--0--|--0----0--0--0--0--0--0--|
                                                                              
-------------------------|-------------------------|-------------------------|
-------------------------|-------------------------|-------------------------|
-------------------------|-------------------------|-------------------------|
-------------------------|-------------------------|-------------------------|
--2----2--------2-----9--|--9----9--------9-----8--|--8----8--------8-----6--|
--2----2--2--2--2--2--9--|--9----9--9--9--9--9--8--|--8----8--8--8--8--8--6--|
--0----0--0--0--0--0--7--|--7----7--7--7--7--7--6--|--6----6--6--6--6--6--4--|
                                                                              
-------------------------|-------------------------|-------------------------|
-------------------------|-------------------------|-------------------------|
-------------------------|-------------------------|-------------------------|
-------------------------|-------------------------|-------------------------|
--6----6--------6-----6--|--6----6--------6-----2--|--2----2--------2-----4--|
--6----6--6--6--6--6--6--|--6----6--6--6--6--6--2--|--2----2--2--2--2--2--4--|
--4----4--4--4--4--4--4--|--4----4--4--4--4--4--0--|--0----0--0--0--0--0--2--|
                                                                              
-------------------------|-------------------------|-------------------------|
-------------------------|-------------------------|-------------------------|
-------------------------|-------------------------|-------------------------|
-------------------------|-------------------------|-------------------------|
--4----4--------4-----2--|--2----2--------2-----4--|--4----4--------4-----4--|
--4----4--4--4--4--4--2--|--2----2--2--2--2--2--4--|--4----4--4--4--4--4--4--|
--2----2--2--2--2--2--0--|--0----0--0--0--0--0--2--|--2----2--2--2--2--2--2--|
                                                                              
-------------------------|-------------------------|-------------------------|
-------------------------|-------------------------|-------------------------|
-------------------------|-------------------------|-------------------------|
-------------------------|-------------------------|-------------------------|
--2----2--------2-----4--|--4----4--------4-----4--|--6----6--------6-----2--|
--2----2--2--2--2--2--4--|--4----4--4--4--4--4--4--|--6----6--6--6--6--6--2--|
--0----0--0--0--0--0--2--|--2----2--2--2--2--2--2--|--4----4--4--4--4--4--0--|
                                                                            
-------------------------|-------------------------|-------------------------|
-------------------------|-------------------------|-------------------------|
-------------------------|-------------------------|-------------------------|
-------------------------|-------------------------|-------------------------|
--2----2--------2-----6--|--6----6--------6-----2--|--2----2--------2-----6--|
--2----2--2--2--2--2--6--|--6----6--6--6--6--6--2--|--2----2--2--2--2--2--6--|
--0----0--0--0--0--0--4--|--4----4--4--4--4--4--0--|--0----0--0--0--0--0--4--|
                                                                           
-------------------------|-------------------------|-------------------------|
-------------------------|-------------------------|-------------------------|
-------------------------|-------------------------|-------------------------|
-------------------------|-------------------------|-------------------------|
--6----6--------6-----2--|--2----2--------2-----6--|--6----6--------6-----2--|
--6----6--6--6--6--6--2--|--2----2--2--2--2--2--6--|--6----6--6--6--6--6--2--|
--4----4--4--4--4--4--0--|--0----0--0--0--0--0--4--|--4----4--4--4--4--4--0--|
                                                                        
-------------------------|-------------------------|-------------------------|
-------------------------|-------------------------|-------------------------|
-------------------------|-------------------------|-------------------------|
-------------------------|-------------------------|-------------------------|
--2----2--------2-----6--|--6----6--------6-----2--|--2----2--------2-----6--|
--2----2--2--2--2--2--6--|--6----6--6--6--6--6--2--|--2----2--2--2--2--2--6--|
--0----0--0--0--0--0--4--|--4----4--4--4--4--4--0--|--0----0--0--0--0--0--4--|
                                                                              
-------------------------|-------------------------|-------------------------|
-------------------------|-------------------------|-------------------------|
-------------------------|-------------------------|-------------------------|
-------------------------|-------------------------|-------------------------|
--6----6--------6-----2--|--2----2--------2-----6--|--6----6--------6-----2--|
--6----6--6--6--6--6--2--|--2----2--2--2--2--2--6--|--6----6--6--6--6--6--2--|
--4----4--4--4--4--4--0--|--0----0--0--0--0--0--4--|--4----4--4--4--4--4--0--|
                                                                              
-------------------------|-------------------------|-------------------------|
-------------------------|-------------------------|-------------------------|
-------------------------|-------------------------|-------------------------|
-------------------------|-------------------------|-------------------------|
--2----2--------2-----6--|--6----6--------6-----2--|--2----2--------2-----6--|
--2----2--2--2--2--2--6--|--6----6--6--6--6--6--2--|--2----2--2--2--2--2--6--|
--0----0--0--0--0--0--4--|--4----4--4--4--4--4--0--|--0----0--0--0--0--0--4--|
                                                                              
-------------------|------------------|------------------|------------------||
-------------------|------------------|------------------|------------------||
-------------------|------------------|------------------|------------------||
-------------------|------------------|------------------|------------------||
--6----------------|------------------|------------------|------------------||
--6----------------|------------------|------------------|------------------||
--4----------------|------------------|------------------|------------------||

===============================================================================
Comments