Joe Satriani - Tears In The Rain Chords & Tabs

 

Tears In The Rain Chords & Tabs

Joe Satriani Chords & Tabs

Version: 1 Type: Tab 0 ratings
1 star 2 stars 3 stars 4 stars 5 stars
comments

Tears In The Rain Tab

TEARS IN THE RAIN (JOE SATRIANI; from THE EXTREMIST)

3
   time, A minor, normal tuning 
4


-------0-------------0-------------0-------------0----------
-----3---3---------3---3---------6---6---------3---3--------
---5-------5-----4-------4-----7-------7-----5-------5------
-7-------------3-------------6-------------7----------------
------------------------------------------------------------
------------------------------------------------------------

(Repeat four arpeggios above)

---0---8---0---------5---------0---8---0---------5----------
-----6---6---------5---5---------6---6---------5---5--------
-----------------5-------5-------------------5-------5------
-7-------------7-------------7-------------7----------------
------------------------------------------------------------
------------------------------------------------------------

-------0-------------0-------------0-------------0----------
-----1---1---------1---1---------3---3---------3---3--------
---2-------2-----2-------2-----4-------4-----4-------4------
-3-------------3-------------3-------------3----------------
------------------------------------------------------------
------------------------------------------------------------

-------0-------------0--------------------------------------
-----1---1---------3---3------------------------------------
---2-------2-----4-------4----------------------------------
-2-------------2--------------------------------------------
-----------------------------0-2-3-----2---0----------------
-----------------------------------0-4----------------------

-------0-------------0-------------0-------------0----------
-----3---3---------3---3---------6---6---------3---3--------
---5-------5-----4-------4-----7-------7-----5-------5------
---------------3-------------6------------------------------
-0-----------------------------------------0----------------
------------------------------------------------------------

(Repeat four arpeggios above)

---0---8---0-----0---8---0-------5-7-5---------5-7-5--------
-----6---6---------6---6-------5-------5-----5-------5------
------------------------------------------------------------
-0-------------0--------------------------------------------
-----------------------------3-------------3----------------
------------------------------------------------------------

-------0-------------0-------------1-------------0----------
-----3---3---------3---3---------3---3---------1---1--------
---2-------2-----1-------1-----2-------2-----2-------2------
------------------------------------------------------------
-2---------------------------0-------------0----------------
---------------0--------------------------------------------

---0---8---0-----0---8---0-------5-7-5---------5-7-5--------
-----6---6---------6---6-------5-------5-----5-------5------
------------------------------------------------------------
-0-------------0--------------------------------------------
-----------------------------3-------------3----------------
------------------------------------------------------------

-------7-------------4-------------1------------------------
-----6---6---------3---3---------0---0-----------3----------
---7-------7-----4-------4-----1-------1-------1---1--------
-6-------------3-------------0---------------3-------3------
-------------------------------------------2----------------
------------------------------------------------------------

------------------------------------------------------------
-------3-------------0-------------1-------------0----------
-----4---4---------1---1---------2---2---------1---1--------
---3-------3-----0-------0-----2-------2-----2-------2------
------------------------------------------------------------
-4-------------1-------------0-------------0----------------
[ Tab from: http://www.guitartabs.cc/tabs/j/joe_satriani/tears_in_the_rain_tab.html ]
---------------------0-----------0-5-7-----8----------------
-------1-----------1---1-------1-----3-----5----------------
-----2---2-------2-------2---2------------------------------
---2-------2---2--------------------------------------------
-0----------------------------------------------------------
------------------------------------------------------------

(Closes with a faint open A string)



From: ahc_lab_2.administration@cvmfaculty.msstate.edu (Will Pepper)

Transcription to 'Tears in the rain' (Satch) from 'The Extremist'
  by M van Welie

3/4 A minor 

E-|--------0-----|-------0-----|-------0-----|-------0------|
B-|------3---3---|-----3---3---|-----6---6---|-----3---3----|
G-|o---5-------5-|---4-------4-|---7-------7-|---5-------5-o|
D-|o-7-----------|-3-----------|-6-----------|-7-----------o|
A-|--------------|-------------|-------------|--------------|
E-|--------------|-------------|-------------|--------------|

E-------8-----|-------5-----|-------8-----|-------5-----|
B-----6---6---|-----5---5---|-----6---6---|-----5---5---|
G---9-------9-|---5-------5-|---9-------9-|---5-------5-|
D-7-----------|-7-----------|-7-----------|-7-----------|
A-------------|-------------|-------------|-------------|
E-------------|-------------|-------------|-------------|

E-------0-----|-------0-----|-------0-----|-------0-----|
B-----1---1---|-----1---1---|-----3---3---|-----3---3---|
G---2-------2-|---2-------2-|---4-------4-|---4-------4-|
D-3-----------|-3-----------|-3-----------|-3-----------|
A-------------|-------------|-------------|-------------|
E-------------|-------------|-------------|-------------|

E-------0-----|-------0-----|-------------|-------------|
B-----1---1---|-----3---3---|-------------|-------------|
G---2-------2-|---4-------4-|-------------|-------------|
D-2-----------|-2-----------|-------------|-------------|
A-------------|-------------|-0-2-3-----2-|-0-----------|
E-------------|-------------|-------0-4---|-------------|

E-|--------0-----|-------0-----|-------0-----|-------0------|
B-|------3---3---|-----3---3---|-----6---6---|-----3---3----|
G-|o---5-------5-|---4-------4-|---7-------7-|---5-------5-o|
D-|o-------------|-3-----------|-6-----------|-------------o|
A-|--0-----------|-------------|-------------|-0------------|
E-|--------------|-------------|-------------|--------------|

E-------8-----|-------8-----|-------7-----|-------7-----|
B-----6---6---|-----6---6---|-----10--10--|-----10--10--|
G---9-------9-|---9-------9-|---9-------9-|---9-------9-|
D-0-----------|-0-----------|-------------|-------------|
A-------------|-------------|-------------|-------------|
E-------------|-------------|-8-----------|-8-----------|

E-------0-----|-------0-----|-------1-----|-------0-----|
B-----3---3---|-----3---3---|-----3---3---|-----1---1---|
G---2-------2-|---1-------1-|---2-------2-|---2-------2-|
D-------------|-------------|-------------|-------------|
A-2-----------|-------------|-0-----------|-0-----------|
E-------------|-0-----------|-------------|-------------|

E-------8-----|-------8-----|-------7-----|-------7-----|
B-----6---6---|-----6---6---|-----10--10--|-----10--10--|
G---9-------9-|---9-------9-|---9-------9-|---9-------9-|
D-0-----------|-0-----------|-------------|-------------|
A-------------|-------------|-------------|-------------|
E-------------|-------------|-8-----------|-8-----------|

E-------7-----|-------4-----|-------1-----|-------------|
B-----6---6---|-----3---3---|-----0---0---|-------3-----|
G---7-------7-|---4-------4-|---1-------1-|-----1---1---|
D-6-----------|-3-----------|-0-----------|---3-------3-|
A-------------|-------------|-------------|-2-----------|
E-------------|-------------|-------------|-------------|

E-------------|-------------|-------------|-------------|
B-------3-----|-------0-----|-------1-----|-------0-----|
G-----4---4---|-----1---1---|-----2---2---|-----1---1---|
D---3-------3-|---0-------0-|---2-------2-|---2-------2-|
A-------------|-------------|-------------|-------------|
E-4-----------|-1-----------|-0-----------|-0-----------|

E-------------|-------0-----|-----0-5-7-8-|-------------|
B-------1-----|-----1---1---|---1-----3-5-|-------------|
G-----2---2---|---2-------2-|-2-----------|-------------|
D---2-------2-|-2-----------|-------------|-------------|
A-0-----------|-------------|-------------|-0-----------|
E-------------|-------------|-------------|-------------|

Comments