Joe Satriani - Tears In The Rain Chords & Tabs

 

Tears In The Rain Chords & Tabs

Joe Satriani Chords & Tabs

Version: 1 Type: Bass Tab 0 ratings
1 star 2 stars 3 stars 4 stars 5 stars
comments

Tears In The Rain Bass Tab

			Tear in the Rain
			================
								Joe Satriani

									To Coda
|-----------9-----------------9--------|----------------------------9---------|
|o-------12----12----------12----12----|-------15-14-15----------12----12----o|
|o----15----------15----14----------15-|----17----------17----15----------15-o|
|--17----------------13----------------|-16----------------17-----------------|


|-----------17----------------14-------|----------17----------------14--------|
|--------15----15----------14----14----|-------15----15----------14----14-----|
|-----19----------19----15----------15-|----19----------19----15----------15--|
|--17----------------17----------------|-17----------------17-----------------|


|-----------9-----------------9--------|----------9-----------------9---------|
|--------10----10----------10----10----|-------12----12----------12----12-----|
|-----12----------12----12----------12-|----11----------11----11----------11--|
|--13----------------13----------------|-13----------------13-----------------|

								     DC al Coda
|-----------9-----------------9--------|-------------------------------------||
|--------10----10----------12----12----|-------------------------------------||
|-----12----------12----11----------11-|-0--2--3--------2--0-----------------||
|--12----------------12----------------|----------0--4-----------------------||



Coda
|-----------17----------------17-------|--------------------------------------|
|--------15----15----------15----15----|-------19-21-19----------19-21-19-----|
|-----19----------19----19----------19-|----19----------19----19----------19--|
|--10----------------12----------------|-8-----------------8------------------|

|--------------------------------------|--------------------------------------|
|-------12-15-12----------12-14-12-----|-------12-15-12----------10-14-10-----|
|----12----------12----11----------11--|----12----------12----12----------12--|
|--7----------------0------------------|-5-----------------5------------------|
[ Tab from: http://www.guitartabs.cc/tabs/j/joe_satriani/tears_in_the_rain_btab.html ]
|-----------17----------------17-------|--------------------------------------|
|--------15----15----------15----15----|-------19-21-19----------19-21-19-----|
|-----19----------19----19----------19-|----19----------19----19----------19--|
|--10----------------12----------------|-8-----------------8------------------|

|-----------16----------------13-------|----------10----------------7---------|
|--------15----15----------12----12----|-------9-----9-----------6-----6------|
|-----17----------------14-------------|----11----------------8---------------|
|--16----------------13----------------|-10----------------7------------------|

|-----------7-----------------4--------|----------5-----------------4---------|
|--------9-----9-----------6-----6-----|-------7-----7-----------6-----6------|
|-----8-----------------5--------------|----7-----------7-----7-----------7---|
|--4-----------------1-----------------|-0-----------------0------------------|

|--------------------------------------|----------5-----------------9---------|
|--------------------------------------|-------7-----7-----------10----10-----|
|--------------------------------------|----7-----------7-----12----------12--|
|--0-----------------------------------|-5-----------------12-----------------|

|----------14--------16-------17-------|--------------------------------------|
|-------14-----------------------------|--------------------------------------|
|----15--------------17-------19-------|-0------------------------------------|
|-17-----------------------------------|--------------------------------------|

This is the tab for "tears in the rain" from Joe Satriani's albumn "The
Extremist". I adapted it for bass from the guitar transcription in Guitarist
Magazine.

Its actualy relativly easy (assuming your tapping is up to scratch). Unusualy,
for most of the piece the right hand hould play the notes on the E and A
strings, while the left plays the D and G strings. The exception to this is
the first six bars of the coda, where the E is played by the left hand, and
the rest is tapped. (and the last bar before the DC which should be played
normaly)

The only hard part is the first bar of the coda - the right hand is a bitch. I
play the A string with my thumb, D with my index, and G with my third. Yes this
does feel odd, but its the best I can find.

As usual, let me know if this is of interest to you, and I'll be more likely to
enter more stuff. If you do use it, then you should also feel oblidged to put
something back onto the archive - even if its something trivialy simple. Others
will find it usefull.

Ian Stephenson
ian@ohm.york.ac.uk

Comments