Joe Satriani - Raspberry Jam Delta-v Chords & Tabs

 

Raspberry Jam Delta-v Chords & Tabs

Joe Satriani Chords & Tabs

Version: 1 Type: Bass Tab 0 ratings
1 star 2 stars 3 stars 4 stars 5 stars
comments

Raspberry Jam Delta-v Bass Tab

RASPBERRY JAM DELTA-V
By Joe Satrini
>From the Album "Crystal Planet" Of 1998




I play it on 4-String Bass Guitar with standard tune.
Here, it is exactly like what you hear.

------------------------------------------------------------------------------------------------------------------
				          RASPBERRY JAM DELTA-V
						   BY
					      JOE SATRIANI

   Enter with Drums,

              Play three times
G ||---------------------------|--------------------------|-
D ||---------------------------|--------------------------|-
A ||--2^0-2--0-2-0-2---0---0---|--2^0-2--0-2-0-4---2---0--|-
E ||---------------------2-----|---------------------2----|-

              Play three times
G ||---------------------------|--------------------------|-
D ||---------------------------|--------------------------|-
A ||--2^0-2--0-2-0-2---0---0---|--2-----------------------|-
E ||---------------------2-----|----0-2-3-4-5-6-7---------|-



[ Tab from: http://www.guitartabs.cc/tabs/j/joe_satriani/raspberry_jam_delta_v_btab.html ]
              Play three times
G ||---------------------------|--------------------------|-
D ||---------------------------|--------------------------|-
A ||--2^0-2--0-2-0-2---0---0---|--2^0-2--0-2-0--6-4----2--|-
E ||---------------------2-----|---------------------2----|-

              Play three times
G ||---------------------------|--------------------------|-
D ||---------------------------|--------------------------|-
A ||--2^0-2--0-2-0-2---0---0---|--2-----------------------|-
E ||---------------------2-----|----0-2-3-4-5-6-7---------|-

There is a small Guitar solo part in the middle of the piece, Bass play 
nothing in.



This Riff is played 8 times before ending the piece,

G ||---------------------------------------|-
D ||---------------------------------------|-
A ||------12^14--12^14---------------------|-
E ||--777-----------------4-5-6---5-6-7-7--|-



   EnJoY It...!!!

Tabed By HAZEM AMMARI - Bassist of HeavyMetal Band "Black Coffin"
For any questions or recommendations please E-mail me at    
haz_met@hotmail.com
Comments